Oops, an error
Loading. Please wait.

Blind Tab

version 2
by Korn
9,022 views 15 this week
1 commentread comment
1 2 3 4 5
worth learning
x 5
add to favorites
launch autoscroll
font size
0
reset
how to read this tab
guitar tuner
Autoscroll
slow
fast
+/-
esc
set tempo
stop
Help us to improve Ultimate-Guitar.com Take our survey!
×
Author
KoRnPlAyA 110
Thers alot of wrong tabs on this song so im gonna put how i play it.
Im not sayin its 100% right but it sounds damn close to the real thing.
I use my Ibanez RG7420 which is a 7 string, but some parts can be played
on a 6 string.

Intro-Munky

--3333-------------
--5555-------------
--4444-------------
-------------------  Repeat as many times as needed
-------------------
-------------------
-------------------


Intro part 1-Head

-----------------------
-----------------------
-----------------------
-----11----12---------- X2
-----10----11----------
-----9-----10----------
---0-----0-------------


Intro part 2-Head

-----------------------------
-----------------------------
-----------------------------
----------------------------- X4
-----------------------------
-----------------------------
--0-2-0-3-0-2-0-3------------


"ARRRRRRE YOU REEEEAAAAAAAAAADY!!......."

Intro part 3-Both guitars

--------------------------
--------------------------
--------------------------
--------------------5555-- X4
--0-4-0-5-0-4-0-5---5555--
--0-4-0-5-0-4-0-5---3333--
--0-2-0-3-0-2-0-3---------

Slight Pause

--------------------------
--------------------------
--------------------------
--------------------5555-- X4
--0-4-0-5-0-4-0-5---5555--
--0-4-0-5-0-4-0-5---3333--
--0-2-0-3-0-2-0-3---------

Then...

---------------------------
---------------------------
---------------------------
------------------5555-----
--000-5-0-4-0-5---5555-----
--000-5-0-4-0-5---3333-----
--000-3-0-2-0-3------------

Then Back to...

--------------------------
--------------------------
--------------------------
--------------------5555-- X4
--0-4-0-5-0-4-0-5---5555--
--0-4-0-5-0-4-0-5---3333--
--0-2-0-3-0-2-0-3---------

Verse-Both guitars (The way i play it is i use my floating tremlo bridge
and i slowly push it foward then back down) >=push floating tremlo up  

--------------------------
--------------------------
--------------------------
--9>--10>--11>------------ X2
--X>---X>---X>------------
--7>---9>--10>------------
--------------------------

Pre Chorus-Both guitars

------------------------------------------
------------------------------------------
------------------------------------------
------------------------------------------ X2
---5---5/6\5--5-6-7----5/6\5--5-4-3-------
---5---5/6\5--5-6-7----5/6\5--5-4-3-------
---5---5/6\5--5-6-7----5/6\5--5-4-3-------

Then back to...

--------------------------
--------------------------
--------------------------
--9>--10>--11>------------ X2
--X>---X>---X>------------
--7>---9>--10>------------
--------------------------

Pre Chorus again-Both guitars

------------------------------------------
------------------------------------------
------------------------------------------
------------------------------------------ X2
---5---5/6\5--5-6-7----5/6\5--5-4-3-------
---5---5/6\5--5-6-7----5/6\5--5-4-3-------
---5---5/6\5--5-6-7----5/6\5--5-4-3-------

Chorus-Both guitars


--------------------------
--------------------------
--------------------------
--------------------5555-- X8
--0-4-0-5-0-4-0-5---5555--
--0-4-0-5-0-4-0-5---3333--
--0-2-0-3-0-2-0-3---------

Bridge-Both guitars

--3333---3333--0~--------
--5555---5555--0~--------
--4444---4444--0~--------
------------------------- X4
-------------------------
-------------------------
-------------------------

One more time......

--------------------3333------
--------------------5555------
--------------------4444------
------------------------------ X8
--0-4-0-5-0-4-0-5-------------
--0-4-0-5-0-4-0-5-------------
--0-2-0-3-0-2-0-3-------------


Outro-Head

--22b--22b------------
-------------\19------
----------------------
----------------------
----------------------
----------------------
----------------------
Suggest correction
What's this?
You can suggest a correction to this tab. Community and Mods will review your correction and vote to approve or reject it.
comments
print report bad tab
1 comment total.
0 reply
KoRn-Tristan 422 wrote on March 29 2006, 05:48 pm

... really bizzarre!!! it do not song as in the song.... i think ihn the song its just 02030203 7777

guest
You may want to rate the tab now too:
select rating
Please do not post tabs as comments. Select "correction" instead!