Oops, an error
Loading. Please wait.

Blind Tab

version 7
by Korn
7,329 views 24 this week
no commentswrite comment
1 2 3 4 5
please rate
add to favorites
launch autoscroll
font size
0
reset
how to read this tab
guitar tuner
Autoscroll
slow
fast
+/-
esc
set tempo
stop
Help us to improve Ultimate-Guitar.com Take our survey!
×
Author
monkee 156
Song:Blind
Artist:Korn
Album:Korn
By monkee!

This is the best songg everrr!!!!! I use a ibanezz 7 string!

Intro(guitar 1)
D|----2-2-2-2-2----------------------------------|
A|----5-5-5-5-5----------------------------------|
F|----3-3-3-3-3----------------------------------|
C|----2-2-2-2-2----------------------------------|Try this until
G|-----------------------------------------------|Are you ready!
D|-----------------------------------------------|
A|-----------------------------------------------|

guitar2
PM    .    .
D|---------------------|--------------------------|
A|---------------------|--------------------------|
F|------6----7---------|--------------------------|
C|------5----6--x2-----|--------------------------| X4
G|------4----5---------|--------------------------|
D|----0----0-----------|--------------------------|
A|---------------------|-0-2-0-3-0-2-0-3----------|

after davis(both guitar)

D|-----------------------------------------------|
A|-----------------------------------------------|
F|-----------------------------------------------|
C|-----------------------------------------------|
G|----4---5---4---5---8-8-8-8--------------------|
D|----4---5---4---5---8-8-8-8--------------------|
A|--0-2-0-3-0-2-0-3---6-6-6-6--------------------|

pm  . . . . .
D|-----------------------------------------------|
A|-----------------------------------------------|
F|-----------------------------------------------|
C|-----------------------------------------------|
G|-------------5---4---5---8-8-8-8---------------|
D|-------------5---4---5---8-8-8-8---------------|
A|--0-0-0-0-0--3-0-2-0-3---6-6-6-6---------------|


verse (guitar 1) use a kind of effect! 
D|--1-----0-----------1-----------0--------------|
A|--1-----0-----------1-----------0--------------|
F|-----------------------------------------------|
C|-----------------------------------------------|
G|-----------------------------------------------|
D|-----------------------------------------------|
A|-----------------------------------------------|

Guitar 2
D|-----------------------------------------------|
A|-----------------------------------------------|
F|----1----2----------1-----------2--------------|
C|----2----3----------2-----------3--------------|
G|----2----3----------2-----------3--------------|
D|-----------------------------------------------|
A|-----------------------------------------------|

then try this(both guitar)
D|-----------------------------------------------|
A|-----------------------------------------------|
F|-----------------------------------------------|
C|-----------------------------------------------|
G|------------------------------------8----------|
D|---7-7/8\7--8-8-8-----7-7/8\7--8-8--6----------|
A|---5-5/6\5--6-6-6-x3--5-5/6\5--6-6-------------|

this is a kind of interlude or something!(guitar 1)
D|--2-0-------2-2-5-2-2--------------------------|
A|--5-0-------5-5-5-5-5--------------------------|
F|--3-0-x1----3-3-3-3-3--------------------------|
C|--2-0-------2-2-2-2-2--------------------------|
G|-----------------------------------------------|
D|-----------------------------------------------|
A|-----------------------------------------------|
Then guitar 2
D|---2-2-2-2--0----------------------------------|
A|---5-5-5-5--0----------------------------------|
F|---3-3-3-3--0----------------------------------|
C|---2-2-2-2--0----------------------------------|
G|-----------------------------------------------|
D|-----------------------------------------------|
A|-----------------------------------------------|

This is all he songg!! is easyy!!! e mail me(Korn_headd@hotmail.com
Suggest correction new What's this?
You can suggest a correction to this tab. Community and Mods will review your correction and vote to approve or reject it.
comments
We did not receive enough feedback on this tab! Please rate:
print report bad tab
1 2 3 4 5
guest
You may want to rate the tab now too:
select rating
Please do not post tabs as comments. Select "correction" instead!