Oops, an error
Loading. Please wait.

Blind Tab

version 8
by Korn
37,656 views 171 this week
no commentswrite comment
1 2 3 4 5
x 11
add to favorites
launch autoscroll
font size
0
reset
how to read this tab
guitar tuner
Autoscroll
slow
fast
+/-
esc
set tempo
stop
Help us to improve Ultimate-Guitar.com Take our survey!
×
Tuning (A D G C F A D)


[Riff 1 - Munky]

d||---------------------||
a||--5-5-5-5------------||
F||--3-3-3-3------------||
C||--2-2-2-2------------||
G||---------------------||
D||---------------------||
A||---------------------||


[Riff 2 - Brian]

d||---------------------------||
a||---------------------------||
F||---------------------------||
C||-----9-----10--------------||
G||-----8-----9---------------||
D||-----7-----8---------------||
A||---0-----0-----------------||
pm.   .     .


[Riff 3 - Brian]

d||---------------------------------||
a||---------------------------------||
F||---------------------------------||
C||---------------------------------||
G||---------------------------------||
D||---------------------------------||
A||--0-2--0-3--0-2--0-3-------------||


[Riff 4 - Brian & Munky]

d||-----------------------------------------||
a||-----------------------------------------||
F||-----------------------------------------||
C||-----------------------------------------||
G||--0-4--0-5--0-4--0-5-8-8-8-8-------------||
D||--0-4--0-5--0-4--0-5-8-8-8-8-------------||
A||--0-2--0-3--0-2--0-3-6-6-6-6-------------||


[Riff 5 - Brian & Munky]

d||-----------------------------------------||
a||-----------------------------------------||
F||-----------------------------------------||
C||-----------------------------------------||
G||-------------5-0--4-0-5-8-8-8-8----------||
D||-------------5-0--4-0-5-8-8-8-8----------||
A||--0-0-0-0-3--0-2--0-3-6-6-6-6------------||


[Riff 6 - Brian & Munky]

d||--0-0-0-0-0-0-0-0-0-0-0-0-0-0-0-0------------|| <-- Munky
a||--5-5-5-5-5-5-5-5-5-5-5-5-5-5-5-5------------|| <-- Munky
F||------------------^-^-^-^-^-^-^-^------------|| <-- Munky
C||---------------------------------------------||
G||--7------------------8-----------------------|| <-- Brian
D||--7------------------8-----------------------|| <-- Brian
A||--5------------------6-----------------------|| <-- Brian


[Riff 7 - Brian & Munky]

d||--------------------------------------------------------------------------------||
a||--------------------------------------------------------------------------------||
F||--------------------------------------------------------------------------------||
C||--------------------------------------------------------------------------------||
G||--7---7/8\7---7/8-8---7/8\7---7/8-8---7/8\7---7/8-8---7/8\7---7/8-10~~~~--------||
D||--7---7/8\7---7/8-6---7/8\7---7/8-6---7/8\7---7/8-6---7/8\7---7/8-10~~~~--------||
A||--5---5/6\5---5/6-----5/6\5---5/6-----5/6\5---5/6-----5/6\5---5/6-8~~~~~--------||

                
[Riff 8 - Munky]

d||----------------------------------------------||
a||-------------------------24-------------------||
F||----------------------------------------------||
C||----------------------------------------------||
G||--0-4--0-5--0-4--0-5--------------------------||
D||--0-4--0-5--0-4--0-5--------------------------||
A||--0-2--0-3--0-2--0-3--------------------------||


[Riff 9 - Munky]

d||---------------------------------------||
a||----------5-5-5-5------5-5-5-5---------||
F||--0------3-3-3-3------3-3-3-3----------||
C||--0------2-2-2-2------2-2-2-2----------||
G||--0------------------------------------||
D||--x------------------------------------||
A||--x------------------------------------||


[Riff 10 - Brian & Munky]

d||------------------------||
a||------------------------||
F||------------------------||
C||------------------------||
G||--7---------8-----------||
D||--7---------8-----------||
A||--5---------6-----------||


[Riff 11 - Brian & Munky]

d||------------------------------------------||
a||------------------------------------------||
F||------------------------------------------||
C||------------------------------------------||
G||--7---------5---------------5-------------||
D||--7---------5---------------5-------------||
A||--5---------3------0--0--0--3-------------||
pm                    .......


[Riff 12 - Brian & Munky]

d||---------------24^^--------24^^------------------------------------|| <-- Brian
a||-----------------------------------------Brian---------------------||
F||---X-X-X-X-------------------------------18^^\\18------------------|| <-- Munky
C||---X-X-X-X---------------------------------------------------------|| <-- Munky
G||---X-X-X-X---------------------------------------------------------|| <-- Munky
D||-------------------------------------------------------------------||
A||-------------------------------------------------------------------||




Songs structure:
Riff 1 x10 INTRO
Riff 2 x1 
Riff 1 x2
Riff 2 x1
Riff 1 x2
Riff 3 x1
Riff 1 x1
Riff 3 x1
Riff 1 x1
Riff 3 x1
Riff 1 x1
Riff 3 x1
Riff 1 x1
Riff 4 x4 PREVERSE
PAUSE
Riff 4 x4
Riff 5 x1
Riff 4 x3
Riff 6 x4 VERSE 1
Riff 7 x1 INTERLUDE 
Riff 6 x4 VERSE 2
Riff 7 x1 INTERLUDE
Riff 4 x1 CHORUS 1
Riff 4 (Brian) + Riff 8 (Munky) x1
Riff 4 x2
Riff 5 x1
Riff 4 x3
Riff 9 x4 BRIDGE
Riff 10 x3
Riff 11 x1
Riff 4 x8 CHORUS 2
Riff 12 x4 OUTRO



************************************

| x  Dead note
| /  Slide up
| \  Slide down
| ~  Vibrato

************************************
Suggest correction
comments
print report bad tab
guest
You may want to rate the tab now too:
select rating
Wanna post a correction for this tab? Suggest correction