Oops, an error
Loading. Please wait.

Break Some Off Tab

version 2
version 2

Whole song

Interactive

by Korn
812 views 1 this week
no commentswrite comment
1 2 3 4 5
please rate
add to favorites
launch autoscroll
font size
0
reset
how to read this tab
guitar tuner
Autoscroll
slow
fast
+/-
esc
set tempo
stop
Help us to improve Ultimate-Guitar.com Take our survey!
×
Contributor
Spankey 454
Band/KoRn
Song/Break Some Off
Album/Take A Look In The Mirror

This is played on a 7-String like all KoRn songs.

INTRO/both guitars
|---------------------|
|---------------------|
|---------------------|
|---------------------|
|---------------------|
|---------------------|
|-3111-1111-1111-1111-|

CHORUS/both guitars
|--------------------|
|--------------------|
|--------------------|
|--------------------|
|--------------------|    x3
|--------------------|
|-1\3-333-333-334455-|

|--------------------|
|--------------------|
|--------------------|
|--------------------|
|--------------------|    X1
|--------------------|
|-1\3-333-333-332211-|

|--------------------|
|--------------------|
|--------------------|
|--------------------|
|--------------------|    X3
|--------------------|
|-1\3-333-333-334455-|

|--------------------|
|--------------------|
|--------------------|
|--------------------|
|--------------------|    X1
|--------------------|
|-1\3-333-333-332211-|

VERSE/guitar 1
|-15--------14---------14------------12-----------------|
|---------------------------15-------------14-----------|
|-------------------------------------------------------|
|----14--14-----14--14------------12-------------12--14-|
|-------------------------------------------------------|    x3
|-------------------------------------------------------|
|-------------------------------------------------------|

|-15--------14---------------14------------12---------------|
|-----------------------------------------------------------|
|-----------------------------------------------------------|
|-----------------------------------------------------------|
|----14--14-----14--14--14---------12--12--------11--12--14-|    X1
|-----------------------------------------------------------|
|-----------------------------------------------------------|


VERSE/guitar 2/I use a wah on this.
|-----------------------------------------------|
|12b~~~~~~~~~~~~~~~~~~11\\\\\\\\\\\5~~~~(5)/////|
|-----------------------------------------------|
|-----------------------------------------------|
|-----------------------------------------------|    x3
|-----------------------------------------------|
|-----------------------------------------------|

|----------------------------------------------------------|
|12b~~~~~~~~~~~~~~~~~~11\\\\\\\\\\\3~~~~5\3~~~3~~~~~3//////|
|----------------------------------------------------------|
|----------------------------------------------------------|
|----------------------------------------------------------|
|----------------------------------------------------------|
|----------------------------------------------------------|

CHORUS/guitar 1
|--------------------|
|--------------------|
|--------------------|
|--------------------|
|--------------------|    x8
|--------------------|
|-1\3-333-333-332211-|


CHORUS/guitar 2
|-------------------|
|-------8-----------|
|7--8-8---8--7--8-8-|
|-------------------|
|-------------------|    x3
|-------------------|
|-------------------|

|----------------------------|
|-------8--------------------|
|7--8-8---8--7--8-8--5--5--8-|
|----------------------------|
|----------------------------|   x1
|----------------------------|
|----------------------------|


VERSE/guitar 1
|-15--------14---------14------------12-----------------|
|---------------------------15-------------14-----------|
|-------------------------------------------------------|
|----14--14-----14--14-----------12--------------12--14-|
|-------------------------------------------------------|    x3
|-------------------------------------------------------|
|-------------------------------------------------------|

|-15--------14---------------14------------12----------------|
|------------------------------------------------------------|
|------------------------------------------------------------|
|----14--14-----14--14--14---------12--12---------11--12--14-|
|------------------------------------------------------------|
|------------------------------------------------------------|    x1
|------------------------------------------------------------|
|------------------------------------------------------------|


VERSE/guitar 2
|----------------------------------------------------|
|12b~~~~~~~~~~~~~~~~~~11\\\\\\\\\\\3~~~~5~~~~(5)/////|
|----------------------------------------------------|
|----------------------------------------------------|
|----------------------------------------------------|    x3
|----------------------------------------------------|
|----------------------------------------------------|

|----------------------------------------------------------|
|12~~~~~~~~~~~~~~~~~~~11\\\\\\\\\\\3~~~~5\3~~~3~~~~~3//////|
|----------------------------------------------------------|
|----------------------------------------------------------|
|----------------------------------------------------------|    x1
|----------------------------------------------------------|
|----------------------------------------------------------|


CHORUS/guitar 1
|--------------------|
|--------------------|
|--------------------|
|--------------------|
|--------------------|    x8
|--------------------|
|-1\3-333-333-332211-|


CHORUS/guitar 2
|-------------------|
|-------8-----------|
|7--8-8---8--7--8-8-|
|-------------------|
|-------------------|    x3
|-------------------|
|-------------------|

|----------------------------|
|-------8--------------------|
|7--8-8---8--7--8-8--5--5--8-|
|----------------------------|
|----------------------------|    x1
|----------------------------|
|----------------------------|


INTERLUDE/guitar 1
|-------|
|-------|
|-------|
|-------|
|-------|
|-------|
|3100-1-|


INTERLUDE/guitar 2
|------------|
|------------|
|7b~~~~~~~~~~|
|------------|
|------------|    x1
|------------|
|------------|


INTRO/both guitars
|---------------------|
|---------------------|
|---------------------|
|---------------------|
|---------------------|    x1
|---------------------|
|-3111-1111-1111-1111-|

INTERLUDE/both guitars
|-------|
|-------|
|-------|
|-------|
|-------|    x8
|-------|
|3100-1-|

INTRO/both guitars
|---------------------|
|---------------------|
|---------------------|
|---------------------|
|---------------------|    x1
|---------------------|
|-3111-1111-1111-1111-|

INTERLUDE/both guitars
|-------|
|-------|
|-------|
|-------|
|-------|    x8
|-------|
|3100-1-|

INTERLUDE/both guitars
|---------------------|
|---------------------|
|---------------------|
|---------------------|
|---------------------|    x1
|---------------------|
|-3111-1111-1111-1111-|

CHORUS/guitar 1
|--------------------|
|--------------------|
|--------------------|
|--------------------|
|--------------------|    x8
|--------------------|
|-1\3-333-333-332211-|

CHORUS/guitar 2
|-------------------|
|-------8-----------|
|7--8-8---8--7--8-8-|
|-------------------|
|-------------------|    x3
|-------------------|
|-------------------|

|----------------------------|
|-------8--------------------|
|7--8-8---8--7--8-8--5--5--8-|
|----------------------------|
|----------------------------|    x1
|----------------------------|
|----------------------------|

CHORUS/guitar1
|--------------------|
|--------------------|
|--------------------|
|--------------------|
|--------------------|    x3
|--------------------|
|-1\3-333-333-334455-|

|--------------------|
|--------------------|
|--------------------|
|--------------------|
|--------------------|    x1
|--------------------|
|-1\3-333-333-332211-|

CHORUS/guitar 2
|---------|
|-------8-|
|7--8-8---|
|---------|
|---------|    x1
|---------|
|---------|

thats it, 100% right. The best song on the album.
comments
We did not receive enough feedback on this tab! Please rate:
print report bad tab
1 2 3 4 5
I want to post or [tab]
guest
You may want to rate the tab now too:
select rating
Please do not post tabs as comments. Select "correction" instead!