Oops, an error
Loading. Please wait.

Break Some Off Tab

version 3
version 3

Whole song

Interactive

by Korn
1,861 views 1 this week
1 commentread comment
1 2 3 4 5
excellent!
x 2
add to favorites
launch autoscroll
font size
0
reset
how to read this tab
guitar tuner
Tab Pro tools
  • play this tab
  • loop segment
  • change instrument
  • show fretboard
  • metronome
Autoscroll
slow
fast
+/-
esc
set tempo
stop
Contributor
Difficulty
novice
Gtr I (A D G C F A D) - 'Head'
Gtr II (A D G C F A D) - 'Munky'
Gtr III (A D G C F A D) - 'Head'
Gtr IV (A D G C F A D) - 'Munky'


 Intro
  Q=110
  D5    C#D5    C#D5    C#D5    C#5   D5           Eb5 E5  D5         Eb5 E5
 4/4
  Gtrs I, II
  |-3-|   |-3-|   |-3-|   |-3-|
  S S S e S S S e S S S e S S S e     E E. S E +E  E E E   E E. S E E E E E
|---------------------------------||---------------------|-------------------|
|---------------------------------||---------------------|-------------------|
|---------------------------------||o--------------------|-------------------|
|---------------------------------||---------------------|-------------------|
|---------------------------------||o-5-5--5-5-(5)-6-6-7-|-5-5--5-5-5-6-6-7--|
|-5-5-5-4-5-5-5-4-5-5-5-4-5-5-5-4-||--5-5--5-5-(5)-6-6-7-|-5-5--5-5-5-6-6-7--|
|-3-3-3-2-3-3-3-2-3-3-3-2-3-3-3-2-||--3-3--3-3-(3)-4-4-5-|-3-3--3-3-3-4-4-5--|


                        1.                     2.
  D5           Eb5   E5  D5           C#5C5    D5           C#5C5
                                              15/16
  E E. S E +E  E +E  E   E E. S E +E  Q  E     E E. S E +E  Q  S
|----------------------|--------------------||-------------------|
|----------------------|--------------------||-------------------|
|----------------------|-------------------o||-------------------|
|----------------------|--------------------||-------------------|
|-5-5--5-5-(5)-6-(6)-7-|-5-5--5-5-(5)-4--3-o||-5-5--5-5-(5)-4--3-|
|-5-5--5-5-(5)-6-(6)-7-|-5-5--5-5-(5)-4--3--||-5-5--5-5-(5)-4--3-|
|-3-3--3-3-(3)-4-(4)-5-|-3-3--3-3-(3)-2--1--||-3-3--3-3-(3)-2--1-|


   Verse
    N.C.
   4/4
    Gtr II
             <                               <                <
     E       H..                    +E       Q.               H
||-------------------------------|-----------------------------------|
||-------------------------------|-----------------------------------|
||o---------16-------------------|-(16)-----15-----------------------|
||-------------------------------|---------------------------12------|
||o------------------------------|-----------------------------------|
||-------------------------------|-----------------------------------|
||-------------------------------|-----------------------------------|
|
|   Gtr IV
|    S  +S   S    +S  E  E  H        S  +S   S   +S  E S +S   Q   Q
||--(5)-(5)S15---(15)S7-12-14----|---5--(5)S14--(14)S7-5-(5)S12--10--|
||-------------------------------|-----------------------------------|
||o------------------------------|-----------------------------------|
||-------------------------------|-----------------------------------|
||o------------------------------|-----------------------------------|
||-------------------------------|-----------------------------------|
||-------------------------------|-----------------------------------|


            <                               <                <
   +E       H..                    +E       Q.               H
|-------------------------------|--------------------------------------||
|-------------------------------|--------------------------------------||
|----------16-------------------|-(16)-----15-------------------------o||
|-(12)--------------------------|---------------------------12---------||
|-------------------------------|-------------------------------------o||
|-------------------------------|--------------------------------------||
|-------------------------------|--------------------------------------||
|
|   S  +S   S    +S  E  E  H        S  +S   S   +S  E S +S   Q   Q
|---5--(5)S15---(15)S7-12-14----|---5--(5)S14--(14)S7-5-(5)S12--10-----||
|-------------------------------|--------------------------------------||
|-------------------------------|-------------------------------------o||
|-------------------------------|--------------------------------------||
|-------------------------------|-------------------------------------o||
|-------------------------------|--------------------------------------||
|-------------------------------|--------------------------------------||


 Chorus
    D5      Eb5    C5          D5      Eb5    C5            D5      Eb5    C5
 9/8                          4/4
    Gtrs I, III
     ~~~~~~~~~~~~~~~~~~~~~~~~~~~~~~~~~~~~~~~~~~~~~~~~~~~~~~~~~~~~~~~~~~~~~~~~~~~~~~~~~
  E  Q.      Q      Q      E    Q.      Q      Q.            Q.      Q      Q      E
|----------------------------|--------------------------||---------------------------|
|----------------------------|--------------------------||---------------------------|
|------------------12--------|--------------------------||o----------------12--------|
|---12------13------------13-|-12------13-----10--------||--12------13------------13-|
|------------------10--------|--------------------------||o----------------10--------|
|---10------11------------11-|-10------11------8--------||--10------11------------11-|
|----------------------------|--------------------------||---------------------------|
|
|   Gtr II
| E  E  E E  E +E   E +E   E    E  E E  E +E   E  +E  E      E  E E  E +E   E +E   E
|----------------------------|--------------------------||---------------------------|
|----------------------------|--------------------------||---------------------------|
|----------------------------|--------------------------||o--------------------------|
|----------------------------|--------------------------||---------------------------|
|----5--5-5--6-(6)--3-(3)--3-|--5--5-5--6-(6)--3--(3)-3-||o--5--5-5--6-(6)--3-(3)--3-|
|----5--5-5--6-(6)--3-(3)--3-|--5--5-5--6-(6)--3--(3)-3-||---5--5-5--6-(6)--3-(3)--3-|
|----3--3-3--4-(4)--1-(1)--1-|--3--3-3--4-(4)--1--(1)-1-||---3--3-3--4-(4)--1-(1)--1-|


 1.,2.                         3.
  D5      Eb5    C5            D5      Eb5    C5
 ~~~~~~~~~~~~~~~~~~~~~~~~~~~~~~~~~~~~~~~~~~~~~~~~
   Q.      Q      Q.        3x  Q.      Q      Q      S  +S
|---------------------------||------------------------------------|
|---------------------------||------------------------------------|
|--------------------------o||------------------------------------|
|-12------13-----10---------||-12------13-----10-----12-(12)b14r==|
|--------------------------o||------------------------------------|
|-10------11------8---------||-10------11------8-----10-(10)b12r==|
|---------------------------||------------------------------------|
|
|  E  E E  E +E   E  +E  E  3x  E  E E  E +E   E +E   E
|---------------------------||------------------------------------|
|---------------------------||------------------------------------|
|--------------------------o||------------------------------------|
|---------------------------||------------------------------------|
|--5--5-5--6-(6)--3--(3)-3-o||--5--5-5--6-(6)--3-(3)--3-----------|
|--5--5-5--6-(6)--3--(3)-3--||--5--5-5--6-(6)--3-(3)--3-----------|
|--3--3-3--4-(4)--1--(1)-1--||--3--3-3--4-(4)--1-(1)--1-----------|


 Verse
  N.C.
                                       <                <
   +H                    H      E      Q.               H
|-----------------------------|--------------------------------|
|-----------------------------|--------------------------------|
|-----------------------------|-------15-----------------------|
|-(12)------------------------|------------------------12------|
|-----------------------------|--------------------------------|
|-(10)------------------------|--------------------------------|
|-----------------------------|--------------------------------|
|
| Gtr IV
|   S  +S   S  +S  E  E  H      S +S   S   +S  E S +S   Q   Q
|---5--(5)S15-(15)S7-12-14----|-5-(5)S14--(14)S7-5-(5)S12--10--|
|-----------------------------|--------------------------------|
|-----------------------------|--------------------------------|
|-----------------------------|--------------------------------|
|-----------------------------|--------------------------------|
|-----------------------------|--------------------------------|
|-----------------------------|--------------------------------|


              <                               <                <
     +E       H..                    +E       Q.               H        3x
||--------------------------------|-------------------------------------||
||--------------------------------|-------------------------------------||
||o----------16-------------------|-(16)-----15------------------------o||
||--(12)--------------------------|---------------------------12--------||
||o-------------------------------|------------------------------------o||
||--------------------------------|-------------------------------------||
||--------------------------------|-------------------------------------||
|
|     S  +S   S    +S  E  E  H        S  +S   S   +S  E S +S   Q   Q    3x
||----5--(5)S15---(15)S7-12-14----|---5--(5)S14--(14)S7-5-(5)S12--10----||
||--------------------------------|-------------------------------------||
||o-------------------------------|------------------------------------o||
||--------------------------------|-------------------------------------||
||o-------------------------------|------------------------------------o||
||--------------------------------|-------------------------------------||
||--------------------------------|-------------------------------------||


 Chorus
    D5      Eb5    C5          D5      Eb5    C5
 9/8                          4/4
     ~~~~~~~~~~~~~~~~~          ~~~~~~~~~~~~~~~~~~~~~~~~~
  E  Q.      Q      Q      E    Q.      Q      Q.
|----------------------------|--------------------------|
|----------------------------|--------------------------|
|------------------12--------|--------------------------|
|---12------13------------13-|-12------13-----10--------|
|------------------10--------|--------------------------|
|---10------11------------11-|-10------11------8--------|
|----------------------------|--------------------------|
|
| Gtr II
| E  E  E E  E +E   E +E   E    E  E E  E +E   E  +E  E
|----------------------------|--------------------------|
|----------------------------|--------------------------|
|----------------------------|--------------------------|
|----------------------------|--------------------------|
|----5--5-5--6-(6)--3-(3)--3-|--5--5-5--6-(6)--3--(3)-3-|
|----5--5-5--6-(6)--3-(3)--3-|--5--5-5--6-(6)--3--(3)-3-|
|----3--3-3--4-(4)--1-(1)--1-|--3--3-3--4-(4)--1--(1)-1-|


    D5      Eb5    C5          D5      Eb5    C5
 ~~~~~~~~~~~~~~~~~~~~~~~~~~~~~~~~~~~~~~~~~~~~~~~~~
     Q.      Q      Q      E    Q.      Q      Q.        3x
||---------------------------|---------------------------||
||---------------------------|---------------------------||
||o----------------12--------|--------------------------o||
||--12------13------------13-|-12------13-----10---------||
||o----------------10--------|--------------------------o||
||--10------11------------11-|-10------11------8---------||
||---------------------------|---------------------------||
|
|    E  E E  E +E   E +E   E    E  E E  E +E   E  +E  E  3x
||---------------------------|---------------------------||
||---------------------------|---------------------------||
||o--------------------------|--------------------------o||
||---------------------------|---------------------------||
||o--5--5-5--6-(6)--3-(3)--3-|--5--5-5--6-(6)--3--(3)-3-o||
||---5--5-5--6-(6)--3-(3)--3-|--5--5-5--6-(6)--3--(3)-3--||
||---3--3-3--4-(4)--1-(1)--1-|--3--3-3--4-(4)--1--(1)-1--||


 Interlude
  N.C.
  Gtr II                                        G
  |-3-|      |-3-|        |-3-|      |-3-|
  S S S E Q  S S S E Q    S S S E Q  S S S E Q
|-----------------------|-----------------------|
|-----------------------|-----------------------|
|-----------------------|-----------------------|
|-----------------------|-----------------------|
|-----------------------|-----------------------|
|-----------------------|-----------------------|
|-3-3-3-0-1--3-3-3-0-1--|-3-3-3-0-1--3-3-3-0-1--|


  C5    B5C5    B5C5    B5C5    B5
 trs I, II
  |-3-|   |-3-|   |-3-|   |-3-|
  S S S e S S S e S S S e S S S e
|----------------------------------|
|----------------------------------|
|----------------------------------|
|----------------------------------|
|----------------------------------|
|-3-3-3-2-3-3-3-2-3-3-3-2-3-3-3-2--|
|-1-1-1-0-1-1-1-0-1-1-1-0-1-1-1-0--|


    N.C.
    |-3-|      |-3-|        |-3-|      |-3-|
    S S S E Q  S S S E Q    S S S E Q  S S S E Q
||------------------------|------------------------||
||------------------------|------------------------||
||o-----------------------|-----------------------o||
||------------------------|------------------------||
||o-----------------------|-----------------------o||
||------------------------|------------------------||
||--3-3-3-0-1--3-3-3-0-1--|-3-3-3-0-1--3-3-3-0-1---||


  C5    B5C5    B5C5    B5C5    B5    N.C.
                                   5/4
  |-3-|   |-3-|   |-3-|   |-3-|
  S S S e S S S e S S S e S S S e   Q  S S E Q  S S E Q
|---------------------------------|----------------------|
|---------------------------------|----------------------|
|---------------------------------|----------------------|
|---------------------------------|----------------------|
|---------------------------------|----------------------|
|-3-3-3-2-3-3-3-2-3-3-3-2-3-3-3-2-|----------------------|
|-1-1-1-0-1-1-1-0-1-1-1-0-1-1-1-0-|----3-3-0-1--3-3-0-1--|


    N.C.                  C5    B5C5    B5C5    B5C5    B5
   4/4                   5/4
                          |-3-|   |-3-|   |-3-|   |-3-|
    S S E Q  S S E Q   3x S S S e S S S e S S S e S S S e Q
||---------------------||-------------------------------------|
||---------------------||-------------------------------------|
||o-------------------o||-------------------------------------|
||---------------------||-------------------------------------|
||o-------------------o||-------------------------------------|
||---------------------||-3-3-3-2-3-3-3-2-3-3-3-2-3-3-3-2-----|
||--3-3-0-1--3-3-0-1---||-1-1-1-0-1-1-1-0-1-1-1-0-1-1-1-0-----|


 Out-Chorus
       D5      Eb5    C5          D5      Eb5    C5
                                 4/4
       Gtrs I, III
        ~~~~~~~~~~~~~~~~~~~~~~~~~~~~~~~~~~~~~~~~~~~~~~~~~~~~
    Q   Q.      Q      Q      E    Q.      Q      Q.
|-------------------------------|--------------------------|
|-------------------------------|--------------------------|
|---------------------12--------|--------------------------|
|-/13--12------13------------13-|-12------13-----10--------|
|---------------------10--------|--------------------------|
|-/11--10------11------------11-|-10------11------8--------|
|-------------------------------|--------------------------|
|
|      Gtr II
|   Q   E  E E  E +E   E +E   E    E  E E  E +E   E  +E  E
|-------------------------------|--------------------------|
|-------------------------------|--------------------------|
|-------------------------------|--------------------------|
|-------------------------------|--------------------------|
|-------5--5-5--6-(6)--3-(3)--3-|--5--5-5--6-(6)--3--(3)-3-|
|-------5--5-5--6-(6)--3-(3)--3-|--5--5-5--6-(6)--3--(3)-3-|
|-------3--3-3--4-(4)--1-(1)--1-|--3--3-3--4-(4)--1--(1)-1-|


                              1.,2.
    D5      Eb5    C5          D5      Eb5    C5
 ~~~~~~~~~~~~~~~~~~~~~~~~~~~~~~~~~~~~~~~~~~~~~~~~~
     Q.      Q      Q      E    Q.      Q      Q.        3x
||---------------------------|---------------------------||
||---------------------------|---------------------------||
||o----------------12--------|--------------------------o||
||--12------13------------13-|-12------13-----10---------||
||o----------------10--------|--------------------------o||
||--10------11------------11-|-10------11------8---------||
||---------------------------|---------------------------||
|
|    E  E E  E +E   E +E   E    E  E E  E +E   E  +E  E  3x
||---------------------------|---------------------------||
||---------------------------|---------------------------||
||o--------------------------|--------------------------o||
||---------------------------|---------------------------||
||o--5--5-5--6-(6)--3-(3)--3-|--5--5-5--6-(6)--3--(3)-3-o||
||---5--5-5--6-(6)--3-(3)--3-|--5--5-5--6-(6)--3--(3)-3--||
||---3--3-3--4-(4)--1-(1)--1-|--3--3-3--4-(4)--1--(1)-1--||


  3.
  D5      Eb5    C5
   ~~~~~~~~~~~~~~~~~
   Q.      Q      Q      S  +S
|----------------------------------|
|----------------------------------|
|----------------------------------|
|-12------13-----10-----12-(12)b14r|
|----------------------------------|
|-10------11------8-----10-(10)b12r|
|----------------------------------|
|
|  E  E E  E +E   E +E   E
|----------------------------------|
|----------------------------------|
|----------------------------------|
|----------------------------------|
|--5--5-5--6-(6)--3-(3)--3---------|
|--5--5-5--6-(6)--3-(3)--3---------|
|--3--3-3--4-(4)--1-(1)--1---------|


  D5              Eb5 E5  D5             Eb5  E5
   +W                      +Q.       Q    Q    E
|-----------------------|------------------------|
|-----------------------|------------------------|
|-----------------------|----------------12------|
|-(12)------------------|-(12)------13--------13-|
|-----------------------|----------------10------|
|-(10)------------------|-(10)------11--------11-|
|-----------------------|------------------------|
|
|   E  E. S E +E  E E E     E  E. S  E E  E E  E
|-----------------------|------------------------|
|-----------------------|------------------------|
|-----------------------|------------------------|
|-----------------------|------------------------|
|---5--5--5-5-(5)-6-6-7-|---5--5--5--5-5--6-6--7-|
|---5--5--5-5-(5)-6-6-7-|---5--5--5--5-5--6-6--7-|
|---3--3--3-3-(3)-4-4-5-|---3--3--3--3-3--4-4--5-|


  D5            Eb5   E5  D5           C#5C5
   W                      E E. S E +E  Q  E
|-----------------------|-------------------*|
|-----------------------|-------------------*|
|-----------------------|-------------------*|
|-12--------------------|-------------------*|
|-----------------------|-5-5--5-5-(5)-4--3-*|
|-10--------------------|-5-5--5-5-(5)-4--3-*|
|-----------------------|-3-3--3-3-(3)-2--1-*|
|
|  E E. S E +E  E +E  E   E E. S E +E  Q  E
|-----------------------|-------------------*|
|-----------------------|-------------------*|
|-----------------------|-------------------*|
|-----------------------|-------------------*|
|--5-5--5-5-(5)-6-(6)-7-|-5-5--5-5-(5)-4--3-*|
|--5-5--5-5-(5)-6-(6)-7-|-5-5--5-5-(5)-4--3-*|
|--3-3--3-3-(3)-4-(4)-5-|-3-3--3-3-(3)-2--1-*|




--------------------------------------------------------------------------------


Duration Legend
---------------
W - whole; H - half; Q - quarter; E - 8th; S - 16th; T - 32nd; X - 64th; a - acciaccatura
+ - note tied to previous; . - note dotted; .. - note double dotted
Uncapitalized letters represent notes that are staccato (1/2 duration)
Irregular groupings are notated above the duration line
Duration letters will always appear directly above the note/fret number it represents the
duration for.  Duration letters with no fret number below them represent rests.  Multi-
bar rests are notated in the form Wxn, where n is the number of bars to rest for.  Low
melody durations appear below the staff

Tablature Legend
----------------
 h   - hammer-on
 p   - pull-off
 b   - bend
 pb  - pre-bend
 r   - bend release (if no number after the r, then release immediately)
 /\  - slide into or out of (from/to "nowhere")
 s   - legato slide
 S   - shift slide
 - natural harmonic
[n]  - artificial harmonic
n(n) - tapped harmonic
 ~   - vibrato
 tr  - trill
 T   - tap
 TP  - trem. picking
 PM  - palm muting
\n/  - tremolo bar dip; n = amount to dip
 \n  - tremolo bar down
 n/  - tremolo bar up
/n\  - tremolo bar inverted dip
 =   - hold bend; also acts as connecting device for hammers/pulls
 <> - volume swell (louder/softer)
 x   - on rhythm slash represents muted slash
 o   - on rhythm slash represents single note slash

Misc Legend
-----------
 |  - bar
||  - double bar
||o - repeat start
o|| - repeat end
*|  - double bar (ending)
 :  - bar (freetime)
 $  - Segno
 &  - Coda
Tempo markers -  = BPM(8/16=s8/s16), where s8 = swing 8ths, s16 = swing 16ths

comments
We did not receive enough feedback on this tab! Please rate:
print report bad tab
1 2 3 4 5
1 comment total.
0 reply
hellsdefender wrote on May 9 2008, 06:21 am

great tab !

finally a good 7string tab for this song.
credits for this dude .

I want to post or [tab]
guest
You may want to rate the tab now too:
select rating
Please do not post tabs as comments. Select "correction" instead!