Oops, an error
Loading. Please wait.

Chi Tab

version 2
version 2

Whole song

Interactive

by Korn
4,183 views 12 this week
no commentswrite comment
1 2 3 4 5
excellent!
x 3
add to favorites
launch autoscroll
font size
0
reset
how to read this tab
guitar tuner
Tab Pro tools
  • play this tab
  • loop segment
  • change instrument
  • show fretboard
  • metronome
Autoscroll
slow
fast
+/-
esc
set tempo
stop
Contributor
Band- Korn
Song- Chi
Album- Life Is Peachy

Main Riff      x8
D|--------------|
A|--------------|
F|--------------|
C|--------------|
G|--------------|
D|-4/5\4-3--332-|
A|-2/3\2-1--110-|

Pre Verse
D|-----------------|
A|-----------------|
F|-16-----------16-|
C|-----------------|
G|-----------------|
D|-----------------|
A|-----------------|

Verse - Munky             x4
D|-------------------------|
A|-17----------------------|
F|----17-15---------17-15^-|
C|--------------16---------|
G|-------------------------|
D|-------------------------|
A|-------------------------|

Verse - Head               x4
D|--------------------------|
A|----------------------21^-|
F|-23^----------------------|
C|--------------------------|
G|--------------------------|
D|--------------------------|
A|--------------------------|

Main Riff      x4
D|--------------|
A|--------------|
F|--------------|
C|--------------|
G|--------------|
D|-4/5\4-3--332-|
A|-2/3\2-1--110-|

Verse - Munky             x4
D|-------------------------|
A|-17----------------------|
F|----17-15---------17-15^-|
C|--------------16---------|
G|-------------------------|
D|-------------------------|
A|-------------------------|

Verse - Head               x4
D|--------------------------|
A|----------------------21^-|
F|-23^----------------------|
C|--------------------------|
G|--------------------------|
D|--------------------------|
A|--------------------------|

Main Riff      x8
D|--------------|
A|--------------|
F|--------------|
C|--------------|
G|--------------|
D|-4/5\4-3--332-|
A|-2/3\2-1--110-|

Fill - Munky  Head (pick scrape)
D|-0~~~~~~~-| |-\x-------|
A|-0~~~~~~~-| |-\x-------|
F|-0~~~~~~~-| |----------|
C|-0~~~~~~~-| |----------|
G|-0~~~~~~~-| |----------|
D|-0~~~~~~~-| |----------|
A|----------| |----------|

Verse - Munky             x4
D|-------------------------|
A|-17----------------------|
F|----17-15---------17-15^-|
C|--------------16---------|
G|-------------------------|
D|-------------------------|
A|-------------------------|

Verse - Head               x4
D|--------------------------|
A|----------------------21^-|
F|-23^----------------------|
C|--------------------------|
G|--------------------------|
D|--------------------------|
A|--------------------------|

Main Riff      x8
D|--------------|
A|--------------|
F|--------------|
C|--------------|
G|--------------|
D|-4/5\4-3--332-|
A|-2/3\2-1--110-|

Interlude         x4
D|-----------------|
A|-----------------|
F|-----------------|
C|-----------------|
G|-----------2-----|
D|-2~~---------1---|
A|-0~~-----0-----1-|

Interlude 2                        
D|----------------------------------|
A|----------------------------------|
F|----------------------------------|
C|----------------------------------|
G|----------------------------2-----|
D|-2~~-33333--33333--33333------1---|
A|-0~~-11111--11111--11111--0-----1-|

D|-----------------------------------|
A|-----------------------------------|
F|-----------------------------------|
C|-----------------------------------|
G|----------------------------2------|
D|-2~~-33333--33333--33333------1-\x-|
A|-0~~-11111--11111--11111--0-----\x-|

Bridge () = Harmonics
D|-----------------------------------------------------|
A|-(17)-(17)-(17)--------------------------------------|
F|-----------------(17)-(17)-(17)----------------------|
C|-----------------------------------------------------|
G|--------------------------------(14)----(14)----(14)-|
D|-----------------------------------------------------|
A|-----------------------------------------------------|

Main Riff      x8
D|--------------|
A|--------------|
F|--------------|
C|--------------|
G|--------------|
D|-4/5\4-3--332-|
A|-2/3\2-1--110-|

Outro         x7
D|-------------|
A|-------------|
F|-------------|
C|-------------|
G|-------------|
D|-3/4\3--2-23-|
A|-1/2\1--0-01-|

Last Time
D|-------------|
A|-------------|
F|-------------|
C|-------------|
G|-------------|
D|-3/4\3-2-3-4-|
A|-1/2\1-0-1-2-|
comments
We did not receive enough feedback on this tab! Please rate:
print report bad tab
1 2 3 4 5
I want to post or [tab]
guest
You may want to rate the tab now too:
select rating
Please do not post tabs as comments. Select "correction" instead!