Oops, an error
Loading. Please wait.

Chi Tab

version 3
version 3

Whole song

Interactive

by Korn
1,108 views 1 this week
no commentswrite comment
1 2 3 4 5
please rate
add to favorites
launch autoscroll
font size
0
reset
how to read this tab
guitar tuner
Autoscroll
slow
fast
+/-
esc
set tempo
stop
Help us to improve Ultimate-Guitar.com Take our survey!
×
Author
Difficulty
Gtr I (A D G C F A D) - 'Head'
Gtr II (A D G C F A D) - 'Munky'
Gtr III (A D G C F A D) - 'Head 2'
Gtr IV (A D G C F A D) - 'Munky 2'


 Intro
  Q=120                                    1.,2.,3.
  C#5     C5            C#C5  B5     C#5      C5  B5     C#5
 4/4
  Gtrs I, II
               ~~
  E   +E  E E  H        E E E Q  S S Q      E E E Q  S S Q       4x
|-------------20----||--------------------|----------------------||
|-------------------||--------------------|----------------------||
|-------------------||o-------------------|---------------------o||
|-------------------||--------------------|----------------------||
|-4b5r(4)-3-3-------||o-4-3-3-2--2-2-4b5--|-4-3-3-2--2-2-4b4.5--o||
|-4b5r(4)-3-3-------||--4-3-3-2--2-2-4b5--|-4-3-3-2--2-2-4b4.5---||
|-2b3r(2)-1-1-------||--2-1-1-0--0-0-2b3--|-2-1-1-0--0-0-2b2.5---||


  4.
    C5  B5     C#5    N.C.
  E E E Q  S S Q      W          H    Q  E  E
|-----------------||-----------|-----------20--||
|-----------------||-----------|---------------||
|-----------------||o----------|--------------o||
|-----------------||-----------|---------------||
|-4-3-3-2--2-2-4--||o----------|--------------o||
|-4-3-3-2--2-2-4--||-----------|---------------||
|-2-1-1-0--0-0-2--||-----------|---------------||


   Verse
      N.C.C                    N.C. C
    Gtrs II, IV
    E  Q  E +Q    Q         E   Q   E +Q    E  E
||----16--6-(6)---------|------16---6-(6)-----20-|
||----------------7-----|------------------------|
||o-------4-(4)---------|-----------4-(4)--------|
||----------------5-----|------------------------|
||o---------------------|------------------------|
||----------------------|------------------------|
||----------------------|------------------------|
|
|   Gtrs I, III
|                                           ~~~~~~
|   H        Q    Q        +E   E H         Q
||----------------------|------------------18----|
||----------------------|------------------------|
||o--------------11b14r=|=(11)-------------------|
||----------------------|------------------------|
||o---------------------|------------------------|
||----------------------|------------------------|
||----------------------|------------------------|


       N.C. C                    N.C. C
    E   Q   E +Q    Q         E   Q   E +Q    E  E
|------16---6-(6)---------|------16---6-(6)-----20--|
|-------------------7-----|-------------------------|
|-----------4-(4)---------|-----------4-(4)---------|
|-------------------5-----|-------------------------|
|-------------------------|-------------------------|
|-------------------------|-------------------------|
|-------------------------|-------------------------|
|
|~~~~~~                                       ~~
|  +Q     H         Q        +E   E H         Q
|-(18)--------------------|------------------18-----|
|-------------------------|-------------------------|
|------------------11b14r=|=(11)--------------------|
|-------------------------|-------------------------|
|-------------------------|-------------------------|
|-------------------------|-------------------------|
|-------------------------|-------------------------|


    N.C.C                    N.C. C
  E  Q  E +Q    Q         E   Q   E +Q    E  E
|---16--6-(6)---------|------16---6-(6)-----20-|
|---------------7-----|------------------------|
|-------4-(4)---------|-----------4-(4)--------|
|---------------5-----|------------------------|
|---------------------|------------------------|
|---------------------|------------------------|
|---------------------|------------------------|
|
|                                         ~~~~~~
| H        Q    Q        +E   E H         Q
|---------------------|------------------18----|
|---------------------|------------------------|
|--------------11b14r=|=(11)-------------------|
|---------------------|------------------------|
|---------------------|------------------------|
|---------------------|------------------------|
|---------------------|------------------------|


       N.C. C                    N.C. C
    E   Q   E +Q    Q         E   Q   E +H
|------16---6-(6)---------|------16---6-(6)----|
|-------------------7-----|--------------------|
|-----------4-(4)---------|-----------4-(4)----|
|-------------------5-----|--------------------|
|-------------------------|--------------------|
|-------------------------|--------------------|
|-------------------------|--------------------|
|
|~~~~~~
|  +Q     H         Q        +E   E Q    H
|-(18)--------------------|--------------------|
|-------------------------|--------------------|
|------------------11b14r=|=(11)---------------|
|-------------------------|--------------------|
|-------------------------|--------------------|
|-------------------------|--------------------|
|-------------------------|--------------------|


 Chorus
  C#5       C5        B5   C5
  Gtrs I, II
  S   +E  S E S   +S  S E. S S E
|--------------------------------|
|--------------------------------|
|--------------------------------|
|--------------------------------|
|-4b5r(4)-4-3-3b4r(3)-2-2--3-3-3-|
|-4b5r(4)-4-3-3b4r(3)-2-2--3-3-3-|
|-2b3r(2)-2-1-1b2r(1)-0-0--1-1-1-|


  C#5       C5        B5   C5      C#5       C5        B5   C5
  S   +E  S E S   +S  S E. S S E   S   +E  S E S   +S  S E. S S E
|--------------------------------|--------------------------------|
|--------------------------------|--------------------------------|
|--------------------------------|--------------------------------|
|--------------------------------|--------------------------------|
|-4b5r(4)-4-3-3b4r(3)-2-2--3-3-3-|-4b5r(4)-4-3-3b4r(3)-2-2--3-3-3-|
|-4b5r(4)-4-3-3b4r(3)-2-2--3-3-3-|-4b5r(4)-4-3-3b4r(3)-2-2--3-3-3-|
|-2b3r(2)-2-1-1b2r(1)-0-0--1-1-1-|-2b3r(2)-2-1-1b2r(1)-0-0--1-1-1-|


  1.
  C#5       C5        B5   C5
  S   +E  S E S   +S  S E. S S E
|---------------------------------||
|---------------------------------||
|--------------------------------o||
|---------------------------------||
|-4b5r(4)-4-3-3b4r(3)-2-2--3-3-3-o||
|-4b5r(4)-4-3-3b4r(3)-2-2--3-3-3--||
|-2b3r(2)-2-1-1b2r(1)-0-0--1-1-1--||


  2.
  C#5       C5        B5   C5      C#5       C5        B5   C5
  S   +E  S E S   +S  S E. S S E   S   +E  S E S   +S  S E. S S E
|--------------------------------|--------------------------------|
|--------------------------------|--------------------------------|
|--------------------------------|--------------------------------|
|--------------------------------|--------------------------------|
|-4b5r(4)-4-3-3b4r(3)-2-2--3-3-3-|-4b5r(4)-4-3-3b4r(3)-2-2--3-3-3-|
|-4b5r(4)-4-3-3b4r(3)-2-2--3-3-3-|-4b5r(4)-4-3-3b4r(3)-2-2--3-3-3-|
|-2b3r(2)-2-1-1b2r(1)-0-0--1-1-1-|-2b3r(2)-2-1-1b2r(1)-0-0--1-1-1-|


  C#5       C5        B5   C5
  S   +E  S E S   +S  S E. S S E
|--------------------------------|
|--------------------------------|
|--------------------------------|
|--------------------------------|
|-4b5r(4)-4-3-3b4r(3)-2-2--3-3-3-|
|-4b5r(4)-4-3-3b4r(3)-2-2--3-3-3-|
|-2b3r(2)-2-1-1b2r(1)-0-0--1-1-1-|


  C#5       C5        B5   C5      C#5       C5
  S   +E  S E S   +S  S E. S S E   S   +E  S E S   +S  Q  Q
|--------------------------------|----------------------------|
|--------------------------------|----------------------------|
|--------------------------------|----------------------------|
|--------------------------------|----------------------------|
|-4b5r(4)-4-3-3b4r(3)-2-2--3-3-3-|-4b5r(4)-4-3-3b4r(3)-x--x---|
|-4b5r(4)-4-3-3b4r(3)-2-2--3-3-3-|-4b5r(4)-4-3-3b4r(3)-x--x---|
|-2b3r(2)-2-1-1b2r(1)-0-0--1-1-1-|-2b3r(2)-2-1-1b2r(1)-x--x---|


                Verse
  N.C.             N.C.C                    N.C. C
                 Gtrs I, III
  Wx4            E  Q  E +Q    Q         E   Q   E +Q    E  E  4x
|------------||----16--6-(6)---------|------16---6-(6)-----20--||
|------------||----------------7-----|-------------------------||
|------------||o-------4-(4)---------|-----------4-(4)--------o||
|------------||----------------5-----|-------------------------||
|------------||o---------------------|------------------------o||
|------------||----------------------|-------------------------||
|------------||----------------------|-------------------------||
|
|                Gtrs II, IV
|                                                        ~~
| Wx4            H        Q    Q        +E   E H         Q     4x
|------------||----------------------|------------------18-----||
|------------||----------------------|-------------------------||
|------------||o--------------11b14r=|=(11)-------------------o||
|------------||----------------------|-------------------------||
|------------||o---------------------|------------------------o||
|------------||----------------------|-------------------------||
|------------||----------------------|-------------------------||


   Chorus
    C#5     C5      B5   C5      C#5     C5      B5   C5
    Gtrs I, II
    S +E  S E S +S  S E. S S E   S +E  S E S +S  S E. S S E  4x
||-----------------------------|-----------------------------||
||-----------------------------|-----------------------------||
||o----------------------------|----------------------------o||
||-----------------------------|-----------------------------||
||o-4-(4)-4-3-3-(3)-2-2--3-3-3-|-4-(4)-4-3-3-(3)-2-2--3-3-3-o||
||--4-(4)-4-3-3-(3)-2-2--3-3-3-|-4-(4)-4-3-3-(3)-2-2--3-3-3--||
||--2-(2)-2-1-1-(1)-0-0--1-1-1-|-2-(2)-2-1-1-(1)-0-0--1-1-1--||


  Q=80
                   E5   Bbmaj7sus4  E5   Cmaj7sus4   E5   Cmaj7sus4
  Wx10          Q  Q  E E E E    Q  Q  E E E E    Q  Q  E E E E
|-------------|---------------|-20-------------|-20-------------|
|-------------|---------------|----------------|----------------|
|-------------|----4----------|-----4----------|-----4----------|
|-------------|----2----------|-----2----------|-----2----------|
|-------------|----2----2-----|-----2----2-----|-----2----2-----|
|-------------|----0------1---|-----0------1---|-----0------1---|
|-------------|-------0-----1-|--------0-----1-|--------0-----1-|


      E5   Cmaj7susB  B5C5#B  B5C5   B  B5C5#  Cmaj7sus4
   Q  Q  E E E E   Q  a Q  Q  a Q    Q  a Q  E S S S S S S
|-20-------------|-----------------|------------------------|
|----------------|-----------------|------------------------|
|-----4----------|-----------------|------------------------|
|-----2----------|-----------------|------------------------|
|-----2----2-----|-x--2-3--x--2-3--|-x--2-3----2-2----------|
|-----0------1---|-x--2-3--x--2-3--|-x--2-3--------1-1------|
|--------0-----1-|-0----1--0--0-1--|-0----1--0---------1-1--|


  B  B5C5 B  B5C5   B  B5C5#  B             N.C.
                                                     |--3--|
  Q  a Q  Q  a Q    Q  a Q  E S S S S S S   H    Q   e  E  E
|-----------------|-----------------------|---------20-20-20-|
|-----------------|-----------------------|------------------|
|-----------------|-----------------------|------------------|
|-----------------|-----------------------|------------------|
|----2-3-----2-3--|----2-3----2-2---------|------------------|
|----2-3-----2-3--|----2-3--------1-1-----|------------------|
|-0--0-1--0--0-1--|-0----1--0---------1-1-|------------------|


  N.C.
           |--3--|
  H    Q   E  E  E   H    Q   Q     H    Q   Q     Q   Q   Q  S  S  E
|---------16-16-16-|--------------|--------------|----------------------|
|------------------|---------<5>--|---------<5>--|----<5>-------<5>-----|
|------------------|--------------|--------------|----------------------|
|------------------|--------------|--------------|----------------------|
|------------------|--------------|--------------|----------------------|
|------------------|--------------|--------------|----------------------|
|------------------|--------------|--------------|----------------------|


  Q=120
               C#5     C5      B5   C5        C#5     C5      B5   C5
  W            S +E  S E S +S  S E. E S +S    S +E  S E S +S  S E. E S +S    4x
|----------||-------------------------------|--------------------------------||
|----------||-------------------------------|--------------------------------||
|----------||o------------------------------|-------------------------------o||
|----------||-------------------------------|--------------------------------||
|----------||o-4-(4)-4-3-3-(3)-2-2--3-3-(3)-|-4-(4)-4-3-3-(3)-2-2--3-3-(3)--o||
|----------||--4-(4)-4-3-3-(3)-2-2--3-3-(3)-|-4-(4)-4-3-3-(3)-2-2--3-3-(3)---||
|----------||--2-(2)-2-1-1-(1)-0-0--1-1-(1)-|-2-(2)-2-1-1-(1)-0-0--1-1-(1)---||


 Outro
  C#5     C5      B5       C5                 B5   C5               B5 C5C#5
  S +E  S E S +S  S E. E S S     E S   +S  Q  Q  E E   E S   +S  Q  Q  E E  3x
|----------------------------||----------------------|----------------------||
|----------------------------||----------------------|----------------------||
|----------------------------||o---------------------|---------------------o||
|----------------------------||----------------------|----------------------||
|-4-(4)-4-3-3-(3)-2-2--2-2-3-||o---3b4r(3)-3--2--0-3-|---3b4r(3)-3--2--3-4-o||
|-4-(4)-4-3-3-(3)-2-2--2-2-3-||----3b4r(3)-3--2--0-3-|---3b4r(3)-3--2--3-4--||
|-2-(2)-2-1-1-(1)-0-0--0-0-1-||----1b2r(1)-1--0----1-|---1b2r(1)-1--0--1-2--||


    C5         B5 C5C#5   C5         B5 C5C#5
  E S   +S  Q  Q  E E   E S   +S  Q  Q  E E
|---------------------|---------------------*|
|---------------------|---------------------*|
|---------------------|---------------------*|
|---------------------|---------------------*|
|---3b4r(3)-3--2--3-4-|---3b4r(3)-3--2--3-4-*|
|---3b4r(3)-3--2--3-4-|---3b4r(3)-3--2--3-4-*|
|---1b2r(1)-1--0--1-2-|---1b2r(1)-1--0--1-2-*|




--------------------------------------------------------------------------------


Duration Legend
---------------
W - whole; H - half; Q - quarter; E - 8th; S - 16th; T - 32nd; X - 64th; a - acciaccatura
+ - note tied to previous; . - note dotted; .. - note double dotted
Uncapitalized letters represent notes that are staccato (1/2 duration)
Irregular groupings are notated above the duration line
Duration letters will always appear directly above the note/fret number it represents the
duration for.  Duration letters with no fret number below them represent rests.  Multi-
bar rests are notated in the form Wxn, where n is the number of bars to rest for.  Low
melody durations appear below the staff

Tablature Legend
----------------
 h   - hammer-on
 p   - pull-off
 b   - bend
 pb  - pre-bend
 r   - bend release (if no number after the r, then release immediately)
 /\  - slide into or out of (from/to "nowhere")
 s   - legato slide
 S   - shift slide
 - natural harmonic
[n]  - artificial harmonic
n(n) - tapped harmonic
 ~   - vibrato
 tr  - trill
 T   - tap
 TP  - trem. picking
 PM  - palm muting
\n/  - tremolo bar dip; n = amount to dip
 \n  - tremolo bar down
 n/  - tremolo bar up
/n\  - tremolo bar inverted dip
 =   - hold bend; also acts as connecting device for hammers/pulls
 <> - volume swell (louder/softer)
 x   - on rhythm slash represents muted slash
 o   - on rhythm slash represents single note slash

Misc Legend
-----------
 |  - bar
||  - double bar
||o - repeat start
o|| - repeat end
*|  - double bar (ending)
 :  - bar (freetime)
 $  - Segno
 &  - Coda
Tempo markers -  = BPM(8/16=s8/s16), where s8 = swing 8ths, s16 = swing 16ths


Suggest correction
Give kudos to tab author, rate the tab!
1 2 3 4 5
comments
print report bad tab
guest
You may want to rate the tab now too:
select rating
Please do not post tabs as comments. Select "correction" instead!