Oops, an error
Loading. Please wait.

Children Of The Korn Tab

version 2
version 2

Whole song

Interactive

by Korn
891 views 1 this week
no commentswrite comment
1 2 3 4 5
3 more votes to show rating
add to favorites
launch autoscroll
font size
0
reset
how to read this tab
guitar tuner
Autoscroll
slow
fast
+/-
esc
set tempo
stop
Help us to improve Ultimate-Guitar.com Take our survey!
×
Children Of The KoRn by KoRn
Guitarist: Head & Munky
Album: Follow The Leader
Dif.: 7
Tabbed by Twiggy5

NOTE: Tune down 1 full step (A D G C F A D)

Verse/Interlude (Gtr. 1) (w/ effect) (“Staring into my sons eyes…”)
D|-14----15---------------20-21---19--|-%-|
F|----------------15------------------|-%-|

Verse/Interlude (Gtr. 2) (w/ same effect)
D|-12---12---------------------------------------------------12--|
A|------------------11-------------------------------------------|
F|----------------------9-8-7-----7-8-9--------9-8-7-------------|

Chorus (Both Guitars) (“So sing me, my eye…”)
G|-3---3---3-3-3-3-3-3--3---3--2--|
D|-3---3---3-3-3-3-3-3--3---3--2--|
A|-1---1---1-1-1-1-1-1--1---1--0--|

Verse 2 (Gtr. 1) (“Droppin smoke in the alley..”)
D|-------------------------------------------------|-%-|-15--|
A|-14----------15--14------13----------------------|-%-|-----|
F|----------------------------------------------12-|-%-|-----|

Verse 2 (Gtr. 2)
G|-4----------------4----------3----------------------5-----|
D|-4----------------4----------3----------------------5-----|
A|-2----------------2----------1----------------------3-----|

Bridge (Gtr. 1) (w/ whammy pedal) (“Nothing seems to faze…”)
d|---------------------------|--16^-----(16)p14---16---|-%-|
                                  ^ bend full step then back down 
                                    to bracketed 16

Bridge (Gtr. 2)
G|-X------X---X---X---X-----X----X-----X------X----|
D|-X------X---X---X---X-----X----X-----X------X----|
A|-X------X---X---X---X-----X----X-----X------X----|

Outro (Gtr. 1)
G|-5---------------------5----------------------------5----------|-%-|
D|-5---------------------5----------------------------5----------|-%-|
A|-3---------------------3----------------------------3----------|-%-|

Song Structure: -
Attention all parents report to your local…………………
Verse (Gtr. 1)/Verse (Gtr. 2)
Uh… we ain’t takin no moe….
Chorus (Both Guitars)
Verse 2 (Gtr. 1)/Verse 2 (Gtr. 2)
Chorus (Both Guitars)
Interlude (Gtr. 1)/Interlude (Gtr. 2) (“Cold, I pack up my life…”)
Children of the koRn, children of the koRn…
Verse 2 (Gtr. 1)/Verse 2 (Gtr. 2) (“Fuck authority, hit your ass…”)
Bridge (Gtr. 1)/Bridge (Gtr. 2)
Rest For A Second
Verse 2 (Gtr. 1)/Verse 2 (Gtr. 2) (“Look and see I feel the parents..”)
Outro (Gtr. 1)
STOP!!!!!!!!!!!!! FUCKING!!!!!!!!!!!!! WITH!!!!!!!!!!!!!!! ME!!!!!!!!!!!!!!!!!!!
BIATCH!!!!!!!!!!!!!!!!!!!!!!!!!!!!!!!!!!!!!!!!!!!!!!!!!!!!!!!!!!!!!!!!!!!!!!!!!!!!!!!!!!!!

Alright there ya go. Yet another rapper coming to a rock band. 
Well N E ways I’m guessing the effect on the first Verse and 
Interlude is either phaser, flanger or chorus or maybe all of them. 
Well N E Ways if you have any comments, corrections or suggestions 
email at ToXic345x@yahoo.ca
===========Children of the Korn - Guitar Tab

Transcribed by : James frazzetto (frazztabz@hotmail.com)

7-string tuned (A D G C F A D)

RIFF A  GTR.1 W/EFFECT

||-14---15--------|---20--21--19-|--14---15-------|---20--21--19-|
||----------------|--------------|----------------|--------------|
||------------15--|--------------|------------15--|--------------|
||----------------|--------------|----------------|--------------|
||----------------|--------------|----------------|--------------|
||----------------|--------------|----------------|--------------|
||----------------|--------------|----------------|--------------|

RIFF A GTR.2 W/EFFECT

||-12--12---------|--------------|----------------|------12------|
||---------11-----|--------------|----------------|--------------|
||------------9-8-|-7--------7-8-|--9---------9-8-|--7-----------|
||----------------|--------------|----------------|--------------|
||----------------|--------------|----------------|--------------|
||----------------|--------------|----------------|--------------|
||----------------|--------------|----------------|--------------|

CHORUS GTRS.1 & 2

||---------------------------|
||---------------------------|
||---------------------------|
||---------------------------|
||--3--3--3-3-3-3--3-3-3-----|
||--3--3--3-3-3-3--3-3-3-----|
||--1--1--1-1-1-1--1-1-1--0--|

VERSE GTRS.1 & 2 W/ROTOVIBE

  C#5         C#5    C5          D5
||------------------|-----------------|
||--14-------15-14--|--13-------12----| GTR.2 PLAYS THE CHORDS
||------------------|-----------------|
||------------------|-----------------|
||------------------|-----------------|
||------------------|-----------------|
||------------------|-----------------|

VERSE CONT.

  C#5                C5         D5
||------------------|-------------15--|
||--14-------15-14--|--13-------------|
||------------------|----------12-----|
||------------------|-----------------|
||------------------|-----------------|
||------------------|-----------------|
||------------------|-----------------|

VERSE 2
  C#5               C5           D5
||------------------|-----------------|
||------------------|-----------------|
||------------------|-----------------|
||------------------|-----------------|
||--4---------------|--3------------5-|
||--4---------------|--3------------5-|
||--2---------------|--1------------3-|

RIFF C W/WHAMMY PEDAL    )-BEND 1 STEP
    )                 )
||--16---(16)-14-16---16---(16)-14-16--|
||-------------------------------------|
||-------------------------------------|
||-------------------------------------|
||-------------------------------------|
||-------------------------------------|
||-------------------------------------|
Suggest correction
Give kudos to tab author, rate the tab!
1 2 3 4 5
comments
print report bad tab
guest
You may want to rate the tab now too:
select rating
Wanna post a correction for this tab? Suggest correction