Oops, an error
Loading. Please wait.

Children Of The Korn Tab

version 3
version 3

Whole song

Interactive

by Korn
695 views 1 this week
no commentswrite comment
1 2 3 4 5
please rate
add to favorites
launch autoscroll
font size
0
reset
how to read this tab
guitar tuner
Tab Pro tools
  • play this tab
  • loop segment
  • change instrument
  • show fretboard
  • metronome
×
Best way to learn
"Children Of The Korn"
Autoscroll
slow
fast
+/-
esc
set tempo
stop
Contributor
Difficulty
novice
Gtr I (A D G C F A D) - 'Gtr.1'
Gtr II (A D G C F A D) - 'Gtr.2'
Gtr III (A D G C F A D) - 'Gtr.3'


 Intro
  Moderately Q=88
  N.C.
 4/4
             Gtr I
  Wx4           Q.      E  +E   Q.       Q    Q   Q   Q
|------------|-14------15-(15)---------|-----20--21--19---|
|------------|-------------------------|------------------|
|------------|-----------------15------|------------------|
|------------|-------------------------|------------------|
|------------|-------------------------|------------------|
|------------|-------------------------|------------------|
|------------|-------------------------|------------------|
|
|            Gtr II
| Wx4           Q    Q     +E   E  E E   H.           E E
|------------|-12---12----(12)---------|------------------|
|------------|-----------------11------|------------------|
|------------|---------------------9-8-|-7------------7-8-|
|------------|-------------------------|------------------|
|------------|-------------------------|------------------|
|------------|-------------------------|------------------|
|------------|-------------------------|------------------|


   Q.    E  +Q    Q     Q   Q      Q    Q
|-14----15-(15)-------|----20-----21---19-----|
|---------------------|-----------------------|
|----------------15---|-----------------------|
|---------------------|-----------------------|
|---------------------|-----------------------|
|---------------------|-----------------------|
|---------------------|-----------------------|
|
|  H.             E E   Q   E  E  +Q.     E
|---------------------|-------12-(12)---------|
|---------------------|-----------------------|
|--9--------------9-8-|-7---------------------|
|---------------------|-----------------------|
|---------------------|-----------------------|
|---------------------|-----------------------|
|---------------------|-----------------------|


  N.C.
 4/4
   Q.      E  +E   Q.       Q    Q   Q   Q
|-14------15-(15)---------|-----20--21--19---|
|-------------------------|------------------|
|-----------------15------|------------------|
|-------------------------|------------------|
|-------------------------|------------------|
|-------------------------|------------------|
|-------------------------|------------------|
|
|  Q    Q     +E   E  E E   H.           E E
|-12---12----(12)---------|------------------|
|-----------------11------|------------------|
|---------------------9-8-|-7------------7-8-|
|-------------------------|------------------|
|-------------------------|------------------|
|-------------------------|------------------|
|-------------------------|------------------|


   Q.    E  +Q    Q     Q   Q      Q    Q
|-14----15-(15)-------|----20-----21---19----|
|---------------------|----------------------|
|----------------15---|----------------------|
|---------------------|----------------------|
|---------------------|----------------------|
|---------------------|----------------------|
|---------------------|----------------------|
|
|  H.             E E   Q   E  E  +Q.     E
|---------------------|-------12-(12)--------|
|---------------------|----------------------|
|--9--------------9-8-|-7--------------------|
|---------------------|----------------------|
|---------------------|----------------------|
|---------------------|----------------------|
|---------------------|----------------------|


                Chorus
             $                                            To Coda
                 C5                       C5
             Gtr III
  W              E E S S S S +S S E E E   E E S S S S +S S E E E
                 | | | | | |  | | | | |   | | | | | |  | | | | |
                 / / / / / /  / / / / o   / / / / / /  / / / / o

  Wx2            W                        W                        4x
|------------||-------------------------|--------------------------||
|------------||-------------------------|--------------------------||
|------------||o------------------------|-------------------------o||
|------------||-------------------------|--------------------------||
|------------||o------------------------|-------------------------o||
|------------||-------------------------|--------------------------||
|------------||-------------------------|--------------------------||


 Verse 1
  C#5                  C5             D5
  Gtr III
   H.             Q     H.            Q
   |              |     |             |
   /              /     /             /

  Gtr I
   H      +E   E  Q     H      +E   Q   E
|--------------------|--------------------|
|-14-----(14)-15-14--|-13-----(13)--------|
|--------------------|-------------12-----|
|--------------------|--------------------|
|--------------------|--------------------|
|--------------------|--------------------|
|--------------------|--------------------|


  C#5                  C5             D5
   H.             Q     H.             Q
   |              |     |              |
   /              /     /              /

   H      +E   E  Q     H      +E   E  Q
|--------------------|--------------------|
|-14-----(14)-15-14--|-13-----(13)----15--|
|--------------------|-------------12-----|
|--------------------|--------------------|
|--------------------|--------------------|
|--------------------|--------------------|
|--------------------|--------------------|


  C#5                  C5             D5
   H.             Q     H.            Q
   |              |     |             |
   /              /     /             /

   H      +E   E  Q     H      +E   Q   E
|--------------------|--------------------|
|-14-----(14)-15-14--|-13-----(13)--------|
|--------------------|-------------12-----|
|--------------------|--------------------|
|--------------------|--------------------|
|--------------------|--------------------|
|--------------------|--------------------|


                             D.S. al Coda
  C#5                  C5             D5
   H.             Q     H.             Q
   |              |     |              |
   /              /     /              /

   H      +E   E  Q     H      +E   E  Q
|--------------------|--------------------||
|-14-----(14)-15-14--|-13-----(13)----15--||
|--------------------|-------------12-----||
|--------------------|--------------------||
|--------------------|--------------------||
|--------------------|--------------------||
|--------------------|--------------------||


   Midtro
    &
    N.C.
   4/4
    Gtr I
     Q.      E  +E   Q.       Q    Q   Q   Q
||--14------15-(15)---------|-----20--21--19---|
||--------------------------|------------------|
||o-----------------15------|------------------|
||--------------------------|------------------|
||o-------------------------|------------------|
||--------------------------|------------------|
||--------------------------|------------------|
|
|   Gtr II
|    Q    Q     +E   E  E E   H.           E E
||--12---12----(12)---------|------------------|
||------------------11------|------------------|
||o---------------------9-8-|-7------------7-8-|
||--------------------------|------------------|
||o-------------------------|------------------|
||--------------------------|------------------|
||--------------------------|------------------|


   Q.    E  +Q    Q     Q   Q      Q    Q       Wx2
|-14----15-(15)-------|----20-----21---19----||--------||
|---------------------|----------------------||--------||
|----------------15---|---------------------o||--------||
|---------------------|----------------------||--------||
|---------------------|---------------------o||--------||
|---------------------|----------------------||--------||
|---------------------|----------------------||--------||
|
|  H.             E E   Q   E  E  +Q.     E     Wx2
|---------------------|-------12-(12)--------||--------||
|---------------------|----------------------||--------||
|--9--------------9-8-|-7-------------------o||--------||
|---------------------|----------------------||--------||
|---------------------|---------------------o||--------||
|---------------------|----------------------||--------||
|---------------------|----------------------||--------||


   Verse 2
    C#5                  C5             D5
    Gtr III
     H.             Q     H.            Q
     |              |     |             |
     /              /     /             /

    Gtr I
     H      +E   E  Q     H      +E   Q   E
||---------------------|--------------------|
||--14-----(14)-15-14--|-13-----(13)--------|
||o--------------------|-------------12-----|
||---------------------|--------------------|
||o--------------------|--------------------|
||---------------------|--------------------|
||---------------------|--------------------|


  C#5                  C5             D5
   H.             Q     H.             Q
   |              |     |              |
   /              /     /              /

   H      +E   E  Q     H      +E   E  Q
|--------------------|----------------------||
|-14-----(14)-15-14--|-13-----(13)----15----||
|--------------------|-------------12------o||
|--------------------|----------------------||
|--------------------|---------------------o||
|--------------------|----------------------||
|--------------------|----------------------||


   Interlude
    Gtr I
    Q  E E E E E E           +Q          +Q          +Q           Q
    |  | | | |   |            |           |           |
    x  x x x x   x            x           x           x

    Gtr II
    W                 a      +E   +S   S  Q   a      +E   +S   S  Q
||-----------------|-16b18==(16)r(16)p14-16--16b18==(16)r(16)p14-16--|
||-----------------|-------------------------------------------------|
||o----------------|-------------------------------------------------|
||-----------------|-------------------------------------------------|
||o----------------|-------------------------------------------------|
||-----------------|-------------------------------------------------|
||-----------------|-------------------------------------------------|


  Q  E E E E E E           +Q          +Q          +Q           Q
  |  | | | |   |            |           |           |
  x  x x x x   x            x           x           x

  W                 a      +E   +S   S  Q   a      +E   +S   S  Q
|----------------|-16b18==(16)r(16)p14-16--16b18==(16)r(16)p14-16---||
|----------------|--------------------------------------------------||
|----------------|-------------------------------------------------o||
|----------------|--------------------------------------------------||
|----------------|-------------------------------------------------o||
|----------------|--------------------------------------------------||
|----------------|--------------------------------------------------||


   Verse 3 and 4
    C#5                  C5             D5
    Gtr III
     H.             Q     H.            Q
     |              |     |             |
     /              /     /             /

    Gtr I
     H      +E   E  Q     H      +E   Q   E
||---------------------|--------------------|
||--14-----(14)-15-14--|-13-----(13)--------|
||o--------------------|-------------12-----|
||---------------------|--------------------|
||o--------------------|--------------------|
||---------------------|--------------------|
||---------------------|--------------------|


  C#5                  C5             D5
   H.             Q     H.             Q
   |              |     |              |
   /              /     /              /

   H      +E   E  Q     H      +E   E  Q    4x
|--------------------|----------------------||
|-14-----(14)-15-14--|-13-----(13)----15----||
|--------------------|-------------12------o||
|--------------------|----------------------||
|--------------------|---------------------o||
|--------------------|----------------------||
|--------------------|----------------------||


 Outro
                                      1.,2.         3.
  D5
  Gtr III
  W            +W          +W          +W            +H    H      W
  |             |           |           |             |
  /             /           /           /             /

  W             W           W           W             W           Wx2
|----------||------------|-----------|------------||------------|--------*|
|----------||------------|-----------|------------||------------|--------*|
|----------||o-----------|-----------|-----------o||------------|--------*|
|----------||------------|-----------|------------||------------|--------*|
|----------||o-----------|-----------|-----------o||------------|--------*|
|----------||------------|-----------|------------||------------|--------*|
|----------||------------|-----------|------------||------------|--------*|




--------------------------------------------------------------------------------


Duration Legend
---------------
W - whole; H - half; Q - quarter; E - 8th; S - 16th; T - 32nd; X - 64th; a - acciaccatura
+ - note tied to previous; . - note dotted; .. - note double dotted
Uncapitalized letters represent notes that are staccato (1/2 duration)
Irregular groupings are notated above the duration line
Duration letters will always appear directly above the note/fret number it represents the
duration for.  Duration letters with no fret number below them represent rests.  Multi-
bar rests are notated in the form Wxn, where n is the number of bars to rest for.  Low
melody durations appear below the staff

Tablature Legend
----------------
 h   - hammer-on
 p   - pull-off
 b   - bend
 pb  - pre-bend
 r   - bend release (if no number after the r, then release immediately)
 /\  - slide into or out of (from/to "nowhere")
 s   - legato slide
 S   - shift slide
 - natural harmonic
[n]  - artificial harmonic
n(n) - tapped harmonic
 ~   - vibrato
 tr  - trill
 T   - tap
 TP  - trem. picking
 PM  - palm muting
\n/  - tremolo bar dip; n = amount to dip
 \n  - tremolo bar down
 n/  - tremolo bar up
/n\  - tremolo bar inverted dip
 =   - hold bend; also acts as connecting device for hammers/pulls
 <> - volume swell (louder/softer)
 x   - on rhythm slash represents muted slash
 o   - on rhythm slash represents single note slash

Misc Legend
-----------
 |  - bar
||  - double bar
||o - repeat start
o|| - repeat end
*|  - double bar (ending)
 :  - bar (freetime)
 $  - Segno
 &  - Coda
Tempo markers -  = BPM(8/16=s8/s16), where s8 = swing 8ths, s16 = swing 16ths


comments
We did not receive enough feedback on this tab! Please rate:
print report bad tab
1 2 3 4 5
I want to post or [tab]
guest
You may want to rate the tab now too:
select rating
Please do not post tabs as comments. Select "correction" instead!