Oops, an error
Loading. Please wait.

Did My Time Tab

by Korn
41,935 views 57 this week
9 commentsread comments
1 2 3 4 5
x 15
add to favorites
launch autoscroll
font size
0
reset
how to read this tab
guitar tuner
Autoscroll
slow
fast
+/-
esc
set tempo
stop
Help us to improve Ultimate-Guitar.com Take our survey!
×
Author
Tuning: ADGCFad, to play on six string tune to ADGCFa
(All seven strings distorted except for in Bridge A)

[Intro A]
(A and B interchange, not played at same time, listen to song to see)
e|--------------------------------|
B|--------------------------------|
G|--------------------------------|
D|-5-7-7-7-5-7-7-7-5-7-7-7-5-7-7-7|
A|--------------------------------|
E|--------------------------------|

[Intro B]   
e|---------------------------------|
B|---------------------------------|
G|---------------------------------|
D|-5-8-8-8-5-8-8-8-5-8-8-8-5-8-8-8-|
A|-x-x-x-x-x-x-x-x-x-x-x-x-x-x-x-x-|
E|-3-6-6-6-3-6-6-6-3-6-6-6-3-6-6-6-|

[Intro A]
(A and B interchange, not played at same time, listen to song to see)
e|--------------------------------|
B|--------------------------------|
G|--------------------------------|
D|-5-7-7-7-5-7-7-7-5-7-7-7-5-7-7-7|
A|--------------------------------|
E|--------------------------------|

[Intro B]   
e|---------------------------------|
B|---------------------------------|
G|---------------------------------|
D|-5-8-8-8-5-8-8-8-5-8-8-8-5-8-8-8-|
A|-x-x-x-x-x-x-x-x-x-x-x-x-x-x-x-x-|
E|-3-6-6-6-3-6-6-6-3-6-6-6-3-6-6-6-|

[Intro A]
(A and B interchange, not played at same time, listen to song to see)
e|--------------------------------|
B|--------------------------------|
G|--------------------------------|
D|-5-7-7-7-5-7-7-7-5-7-7-7-5-7-7-7|
A|--------------------------------|
E|--------------------------------|

[Intro B]   
e|---------------------------------|
B|---------------------------------|
G|---------------------------------|
D|-5-8-8-8-5-8-8-8-5-8-8-8-5-8-8-8-|
A|-x-x-x-x-x-x-x-x-x-x-x-x-x-x-x-x-|
E|-3-6-6-6-3-6-6-6-3-6-6-6-3-6-6-6-|

[Chorus] x4
e|-------------------------------|
B|-------------------------------|
G|-------------------------------|
D|-7-7-7----------------5-5-5----|
A|----7-7-7-5-5-5-3-3-3-2-2-2----|
E|-------------------------------|

[Verse]
e|-------------------------------------------------|
B|-------------------------------------------------|
G|-------------------------------------------------|
D|-------------------------------------------------|
A|---7-7---7-7---7-7---7-7---8-8---8-8---8-8---8-8-|
E|-0-5-5-0-5-5-0-5-5-0-5-5-0-6-6-0-6-6-0-6-6-0-6-6-|

[Chorus] x8
e|-------------------------------|
B|-------------------------------|
G|-------------------------------|
D|-7-7-7----------------5-5-5----|
A|----7-7-7-5-5-5-3-3-3-2-2-2----|
E|-------------------------------|

[Verse]
e|-------------------------------------------------|
B|-------------------------------------------------|
G|-------------------------------------------------|
D|-------------------------------------------------|
A|---7-7---7-7---7-7---7-7---8-8---8-8---8-8---8-8-|
E|-0-5-5-0-5-5-0-5-5-0-5-5-0-6-6-0-6-6-0-6-6-0-6-6-|

[Bridge A]
e|------------------------|
B|------------------------|
G|------------------------|
D|-----------------------3|
A|--1-0--1-0----1-0--1-0--|
E|-3----3----1-3----3-----|

[Bridge B]
e|---------------------|
B|---------------------|
G|---------------------|
D|---------------------|
A|---------------------|
E|-3-3-4-3-3-3-3-4-3-1-|

[Bridge C] 
e|-------------------------------------------------|
B|-------------------------------------------------|
G|-------------------------------------------------|
D|-------------------------------------------------|
A|---5-5---5-5---5-5---5-5---6-6---6-6---6-6---6-6-|
E|-0-3-3-0-3-3-0-3-3-0-3-3-0-4-4-0-4-4-0-4-4-0-4-4-|

[Chorus]
e|-------------------------------|
B|-------------------------------|
G|-------------------------------|
D|-7-7-7----------------5-5-5----|
A|----7-7-7-5-5-5-3-3-3-2-2-2----|
E|-------------------------------|


************************************

| x  Dead note

************************************
Suggest correction
comments
print report bad tab
9 comments total. Showing first comments.
0 reply
munkyman 491 Jul 08, 2003 12:00 AM

oops my bad, i listened to the song again and the chorus actually goes like this:
----------------
----------------
----------------
----------------
-777------------
----777---000---
-------888---777
this tab is now 100 percent correct!

+1 reply
kornflipsk8er 130 Jul 08, 2003 12:00 AM

i don't know,the tuning isin't usual of korn.i tabed this song out to but it isn't up yet and i did it in drop d and it sounds closer to it than yours,but whatever.

0 reply
munkyman 491 Jul 12, 2003 12:00 AM

cmon man anyone who is a true korn fan knows that korn is drop 1 step on a seven string (ADGCFAd), obviously u have a six string so tune to ADGCFa, they will sound the same. Its really jacked that u would rate mine low when u dont even go in the tuning and try it, this is 100 percent correct man. korn has never tuned to drop d and most likely never will. thanks for understanding if you even did.

guest
You may want to rate the tab now too:
select rating
Wanna post a correction for this tab? Suggest correction