Oops, an error
Loading. Please wait.

Earache My Eye tab

version 3
version 3

Whole song

Interactive

by Korn
1,271 views 1 this week
no commentswrite comment
1 2 3 4 5
1 last vote to show rating
add to favorites
×
Save as Personal and add changes to this tab that will be seen only by you. Learn more ›
×
You can save this tab as Personal to edit and correct it or add notes. All changes will be seen only by you. Learn more »
launch autoscroll
font size
0
reset
how to read this tab
guitar tuner
edit
Autoscroll
slow
fast
+/-
esc
set tempo
stop
Gtr I (A D G C F A D) - 'Distortion Guitar (Left)'
Gtr II (A D G C F A D) - 'Distortion Guitar (Right)'
Gtr III (A D G C F A D) - 'Clean Guitar (Right)'
Gtr IV (A D G C F A D) - 'FX - Whammy Pedal (Left)'
Gtr V (A D G C F A D) - 'FX - Whammy Pedal (Right)'


 Intro
  Moderately Slow Rock Q=88
  C# C B C#C B E5  C#       C  B  C# C  B  E5     C#
 4/4
  Gtr I
  PM----------------------------------------------|
  S  S e S S e e E  Q     S  S  e  S  S  e   e  E  Q
|----------------------|------------------------------|
|----------------------|------------------------------|
|--------------4-4-----|---------------------4--4-----|
|-5--4-3-5-4-3-2-2--5--|--5--4--3--5--4--3---2--2--5--|
|-4--3-2-4-3-2------4--|--4--3--2--4--3--2---------4--|
|----------------------|------------------------------|
|----------------------|------------------------------|
|
| Gtr III
|                                               <
| H.                Q     S  S  e  S  S  e   e  E  Q
|----------------------|------------------------------|
|------------------15--|-15-14-13-15-14-13-/18-18-15--|
|------------------18--|-18-17-16-18-17-16-/21-21-18--|
|----------------------|------------------------------|
|----------------------|------------------------------|
|----------------------|------------------------------|
|----------------------|------------------------------|


  C# C  B  C# C  B  E5     C#       C  B  C# C  B  E5
   PM--------------------------------------------------|
   S  S  e  S  S  e   e  E  Q     S  S  e  S  S  e   e  Q.
|------------------------------|-----------------------------|
|------------------------------|-----------------------------|
|---------------------4--4-----|---------------------4--4----|
|--5--4--3--5--4--3---2--2--5--|--5--4--3--5--4--3---2--2----|
|--4--3--2--4--3--2---------4--|--4--3--2--4--3--2-----------|
|------------------------------|-----------------------------|
|------------------------------|-----------------------------|
|
|                        <
|  S  S  e  S  S  e   e  E  Q     S  S  e  S  S  e   e  Q.
|------------------------------|-----------------------------|
|-15-14-13-15-14-13-/18-18-15--|-15-14-13-15-14-13-/18-18----|
|-18-17-16-18-17-16-/21-21-18--|-18-17-16-18-17-16-/21-21----|
|------------------------------|-----------------------------|
|------------------------------|-----------------------------|
|------------------------------|-----------------------------|
|------------------------------|-----------------------------|


   Chorus
    C#C5B5C#C5B5E5  C#5    C5B5C#C5B5E5  C#5
    Gtrs I, II
    S S e S S e e E Q    S S e S S e e E Q   4x
||---------------------|---------------------||
||---------------------|---------------------||
||o--------------------|--------------------o||
||--------------2-2----|-------------2-2-----||
||o-4-3-2-4-3-2-2-2-4--|-4-3-2-4-3-2-2-2-4--o||
||--4-3-2-4-3-2-0-0-4--|-4-3-2-4-3-2-0-0-4---||
||--2-1-0-2-1-0-----2--|-2-1-0-2-1-0-----2---||


 Interlude
  N.C.
                                                                    3/8
   S  S S S  S  S S S  S  S S S  S  S S S    S  S  S S  Q  E  Q.      +Q.
|-----------------------------------------|------------------13----|-(13)----|
|-13S12-x-x-----------12S11-x-x-----------|------------------17----|-(17)----|
|-16S15-x-x-12S11-x-x-15S14-x-x-11S10-x-x-|-10S11-12---12----------|---------|
|-----------16S15-x-x-----------15S14-x-x-|-14S15-16---16----------|---------|
|-----------------------------------------|------------------------|---------|
|-----------------------------------------|------------------------|---------|
|-----------------------------------------|------------------------|---------|


   Verse
    C#C5B5C#C5B5E5
   4/4
    S S e S S e e E Q    +W
||---------------------|---------||
||---------------------|---------||
||o--------------------|--------o||
||--------------2-2-5--|-(5)-----||
||o-4-3-2-4-3-2-2-2-4--|-(4)----o||
||--4-3-2-4-3-2-0-0-4--|-(4)-----||
||--2-1-0-2-1-0-----2--|-(2)-----||


    C#C5B5C#C5B5E5
    Gtr I
    S S e S S e e E Q    +W
||---------------------|---------||
||---------------------|---------||
||o--------------------|--------o||
||--------------6-6----|---------||
||o-7-6-5-7-6-5-----7--|-(7)----o||
||---------------------|---------||
||---------------------|---------||
|
|   Gtr II
|   S S e S S e e E Q    +W
||---------------------|---------||
||---------------------|---------||
||o--------------------|--------o||
||--------------2-2-5--|-(5)-----||
||o-4-3-2-4-3-2-2-2-4--|-(4)----o||
||--4-3-2-4-3-2-0-0-4--|-(4)-----||
||--2-1-0-2-1-0-----2--|-(2)-----||


 Interlude
  N.C.
                                                                    3/8
  Gtrs I, II
   S  S S S  S  S S S  S  S S S  S  S S S    S  S  S S  Q  E  Q.      +Q.
|-----------------------------------------|------------------13----|-(13)----|
|-13S12-x-x-----------12S11-x-x-----------|------------------17----|-(17)----|
|-16S15-x-x-12S11-x-x-15S14-x-x-11S10-x-x-|-10S11-12---12----------|---------|
|-----------16S15-x-x-----------15S14-x-x-|-14S15-16---16----------|---------|
|-----------------------------------------|------------------------|---------|
|-----------------------------------------|------------------------|---------|
|-----------------------------------------|------------------------|---------|


   Verse
    C#C5B5C#C5B5E5
   4/4
    S S e S S e e E Q    +W      4x
||---------------------|---------||
||---------------------|---------||
||o--------------------|--------o||
||--------------2-2-5--|-(5)-----||
||o-4-3-2-4-3-2-2-2-4--|-(4)----o||
||--4-3-2-4-3-2-0-0-4--|-(4)-----||
||--2-1-0-2-1-0-----2--|-(2)-----||


 Interlude
  N.C.
                                                                    3/8
   S  S S S  S  S S S  S  S S S  S  S S S    S  S  S S  Q  E  Q.      +Q.
|-----------------------------------------|------------------13----|-(13)----|
|-13S12-x-x-----------12S11-x-x-----------|------------------17----|-(17)----|
|-16S15-x-x-12S11-x-x-15S14-x-x-11S10-x-x-|-10S11-12---12----------|---------|
|-----------16S15-x-x-----------15S14-x-x-|-14S15-16---16----------|---------|
|-----------------------------------------|------------------------|---------|
|-----------------------------------------|------------------------|---------|
|-----------------------------------------|------------------------|---------|


   Chorus
    C#C5B5C#C5B5E5  C#5    C5B5C#C5B5E5  C#5
   4/4
    S S e S S e e E Q    S S e S S e e E Q
||---------------------|---------------------||
||---------------------|---------------------||
||o--------------------|--------------------o||
||--------------2-2----|-------------2-2-----||
||o-4-3-2-4-3-2-2-2-4--|-4-3-2-4-3-2-2-2-4--o||
||--4-3-2-4-3-2-0-0-4--|-4-3-2-4-3-2-0-0-4---||
||--2-1-0-2-1-0-----2--|-2-1-0-2-1-0-----2---||


  C#5C5B5C#C5B5E5   C#5       C5B5  C#C5B5E5    C#5
  Gtr I
   TP           TP         TP    TP         TP
   H            H         +E     Q.         H
|----------------------|---------------------------|
|--9-----------10------|-(10)----9--------/15------|
|-12-----------13------|-(13)---12--------/18------|
|----------------------|---------------------------|
|----------------------|---------------------------|
|----------------------|---------------------------|
|----------------------|---------------------------|
|
| Gtr II
|  S S e S S e  e E Q      S  S  e  S S e   e E Q
|----------------------|---------------------------|
|----------------------|---------------------------|
|----------------------|---------------------------|
|---------------2-2----|--------------------2-2----|
|--4-3-2-4-3-2--2-2-4--|---4--3--2--4-3-2---2-2-4--|
|--4-3-2-4-3-2--0-0-4--|---4--3--2--4-3-2---0-0-4--|
|--2-1-0-2-1-0------2--|---2--1--0--2-1-0-------2--|


  C#5  C5B5   C#C5B5E5   C#5       C5B5  C#C5B5E5    C#5
    TP     TP        TP         TP    TP         TP
   +E      Q.        H         +E     Q.         H
|---------------------------|---------------------------|
|-(15)----\9--------10------|-(10)----9--------/15------|
|-(18)---\12--------13------|-(13)---12--------/18------|
|---------------------------|---------------------------|
|---------------------------|---------------------------|
|---------------------------|---------------------------|
|---------------------------|---------------------------|
|
|   S  S   e  S S e  e E Q      S  S  e  S S e   e E Q
|---------------------------|---------------------------|
|---------------------------|---------------------------|
|---------------------------|---------------------------|
|--------------------2-2----|--------------------2-2----|
|---4--3---2--4-3-2--2-2-4--|---4--3--2--4-3-2---2-2-4--|
|---4--3---2--4-3-2--0-0-4--|---4--3--2--4-3-2---0-0-4--|
|---2--1---0--2-1-0------2--|---2--1--0--2-1-0-------2--|


   Verse
    C#C5B5C#C5B5E5
    Gtrs I, II
    S S e S S e e E Q    +W
||---------------------|---------||
||---------------------|---------||
||o--------------------|--------o||
||--------------2-2-5--|-(5)-----||
||o-4-3-2-4-3-2-2-2-4--|-(4)----o||
||--4-3-2-4-3-2-0-0-4--|-(4)-----||
||--2-1-0-2-1-0-----2--|-(2)-----||


    C#C5B5C#C5B5E5
    Gtr I
    S S e S S e e E Q    +W
||---------------------|---------||
||---------------------|---------||
||o--------------------|--------o||
||--------------6-6----|---------||
||o-7-6-5-7-6-5-----7--|-(7)----o||
||---------------------|---------||
||---------------------|---------||
|
|   Gtr II
|   S S e S S e e E Q    +W
||---------------------|---------||
||---------------------|---------||
||o--------------------|--------o||
||--------------2-2-5--|-(5)-----||
||o-4-3-2-4-3-2-2-2-4--|-(4)----o||
||--4-3-2-4-3-2-0-0-4--|-(4)-----||
||--2-1-0-2-1-0-----2--|-(2)-----||


 Bridge
  N.C.         C#  C B C#C B E5      C#         C B C#C B E5  C#
                PM--------------------------------------------|
  +W            S  S e S S e  e  E    Q      S  S e S S e e E Q
|------------|----------------------------|----------------------|
|------------|----------------------------|----------------------|
|------------|----------------4--4--------|---------------4-4----|
|------------|--5--4-3-5-4-3--2--2----5---|--5--4-3-5-4-3-2-2-5--|
|-(7)--------|--4--3-2-4-3-2----------4---|--4--3-2-4-3-2-----4--|
|------------|----------------------------|----------------------|
|------------|----------------------------|----------------------|
|
|  >
| +W           +H            +E.   S +Q      H.               Q
|------------|----------------------------|----------------------|
|------------|----------------------------|----------------------|
|------------|----------------------------|----------------------|
|-(5)--------|-(5)-----------(5)----------|----------------------|
|-(4)--------|-(4)-----------(4)----------|--4-------------------|
|-(4)--------|-(4)-----------(4)----------|----------------------|
|-(2)--------|-(2)-----------(2)---2-(2)--|-(2)---------------2--|


  C#C B C#C B E5        C#       C B C#C B E5  C#
  PM-------------------------------------------|
  S S e S S e  e  E     Q     S  S e S S e e E Q    +W
|--------------------------|----------------------|--------|
|--------------------------|----------------------|--------|
|--------------4--4--------|---------------4-4----|--------|
|-5-4-3-5-4-3--2--2-----5--|--5--4-3-5-4-3-2-2-5--|-(5)----|
|-4-3-2-4-3-2-----------4--|--4--3-2-4-3-2-----4--|-(4)----|
|--------------------------|----------------------|--------|
|--------------------------|----------------------|--------|
|
| H           +E.   T T Q    +H.               Q    +W
|-------------------0-0----|----------------------|--------|
|-------------------0-0----|----------------------|--------|
|--------------------------|----------------------|--------|
|--------------------------|----------------------|--------|
|-4-----------(4)-------4--|-(4)---------------4--|-(4)----|
|--------------------------|----------------------|--------|
|-----------------------2--|-(2)---------------2--|-(2)----|


   Chorus
    C#C5B5C#C5B5E5  C#5    C5B5C#C5B5E5  C#5
    Gtrs I, II
    S S e S S e e E Q    S S e S S e e E Q   4x
||---------------------|---------------------||
||---------------------|---------------------||
||o--------------------|--------------------o||
||--------------2-2----|-------------2-2-----||
||o-4-3-2-4-3-2-2-2-4--|-4-3-2-4-3-2-2-2-4--o||
||--4-3-2-4-3-2-0-0-4--|-4-3-2-4-3-2-0-0-4---||
||--2-1-0-2-1-0-----2--|-2-1-0-2-1-0-----2---||


  C#5C5B5C#C5B5E5   C#5       C5B5  C#C5B5E5    C#5
  Gtr I
   TP           TP         TP    TP         TP
   H            H         +E     Q.         H
|----------------------|---------------------------|
|--9-----------10------|-(10)----9--------/15------|
|-12-----------13------|-(13)---12--------/18------|
|----------------------|---------------------------|
|----------------------|---------------------------|
|----------------------|---------------------------|
|----------------------|---------------------------|
|
| Gtr II
|  S S e S S e  e E Q      S  S  e  S S e   e E Q
|----------------------|---------------------------|
|----------------------|---------------------------|
|----------------------|---------------------------|
|---------------2-2----|--------------------2-2----|
|--4-3-2-4-3-2--2-2-4--|---4--3--2--4-3-2---2-2-4--|
|--4-3-2-4-3-2--0-0-4--|---4--3--2--4-3-2---0-0-4--|
|--2-1-0-2-1-0------2--|---2--1--0--2-1-0-------2--|


  C#5  C5B5   C#C5B5E5   C#5       C5B5  C#C5B5E5    C#5
    TP     TP        TP         TP    TP         TP
   +E      Q.        H         +E     Q.         H
|---------------------------|---------------------------|
|-(15)----\9--------10------|-(10)----9--------/15------|
|-(18)---\12--------13------|-(13)---12--------/18------|
|---------------------------|---------------------------|
|---------------------------|---------------------------|
|---------------------------|---------------------------|
|---------------------------|---------------------------|
|
|   S  S   e  S S e  e E Q      S  S  e  S S e   e E Q
|---------------------------|---------------------------|
|---------------------------|---------------------------|
|---------------------------|---------------------------|
|--------------------2-2----|--------------------2-2----|
|---4--3---2--4-3-2--2-2-4--|---4--3--2--4-3-2---2-2-4--|
|---4--3---2--4-3-2--0-0-4--|---4--3--2--4-3-2---0-0-4--|
|---2--1---0--2-1-0------2--|---2--1--0--2-1-0-------2--|


  C#5C5B5   C#C5B5E5   C#5     C5B5 C#5C5B5E5     C#5
                                 GtrGtr I     Gtr IV
   TP    TP        TP        TP   TP TP     TP TP
   E     Q.        H         E    E  Q      E  Q.
|-------------------------|--------------------------|
|-15----\9--------10------|--9----9--9-----10-10-----|
|-18---\12--------13------|-12---12-12-----13-13-----|
|-------------------------|--------------------------|
|-------------------------|--------------------------|
|-------------------------|--------------------------|
|-------------------------|--------------------------|
|
|  S S   e  S S e  e E Q     S S  e  S S e  e  E  Q
|-------------------------|--------------------------|
|-------------------------|--------------------------|
|-------------------------|--------------------------|
|------------------2-2----|-----------------2--2-----|
|--4-3---2--4-3-2--2-2-4--|--4-3--2--4-3-2--2--2--4--|
|--4-3---2--4-3-2--0-0-4--|--4-3--2--4-3-2--0--0--4--|
|--2-1---0--2-1-0------2--|--2-1--0--2-1-0--------2--|


  C#5C5B5 C#5C5B5E5     C#5     C5B5 C#5C5B5E5     C#5
  Gtr IGtrGtr I     Gtr IV   Gtr IGtrGtr I     Gtr IV
   TP   TP TP     TP TP       TP   TP TP     TP TP
   E    E  Q      E  Q.       E    E  Q      E  Q.
|--------------------------|--------------------------|
|--9----9--9-----10-10-----|--9----9--9-----10-10-----|
|-12---12-12-----13-13-----|-12---12-12-----13-13-----|
|--------------------------|--------------------------|
|--------------------------|--------------------------|
|--------------------------|--------------------------|
|--------------------------|--------------------------|
|
|  S S  e  S S e  e  E  Q     S S  e  S S e  e  E  Q
|--------------------------|--------------------------|
|--------------------------|--------------------------|
|--------------------------|--------------------------|
|-----------------2--2-----|-----------------2--2-----|
|--4-3--2--4-3-2--2--2--4--|--4-3--2--4-3-2--2--2--4--|
|--4-3--2--4-3-2--0--0--4--|--4-3--2--4-3-2--0--0--4--|
|--2-1--0--2-1-0--------2--|--2-1--0--2-1-0--------2--|


  N.C.
  Gtr IGtrGtr I   Gtr IV  Gtr I Gtr IGtr I         Gtr IV
   TP   TP TP  TP  TP      TP    TP   TP       TP   TP
   E    E  Q   E   Q.      E     E    Q        E    Q.
|-----------------------|--------------------------------------|
|--9----9--9--10--10----|--9-----9----9-------10---10----------|
|-12---12-12--13--13----|-12----12---12-------13---13----------|
|-----------------------|--------------------------------------|
|-----------------------|--------------------------------------|
|-----------------------|--------------------------------------|
|-----------------------|--------------------------------------|
|
| Gtr II
|  S S  e  Q   H          +S  S  S S  S S S S  S S  S  S E S S
|-----------------------|--------------------------------------|
|-----------------------|--------------------------------------|
|-----------------------|--------------------------------------|
|-----------------------|--------------------------------------|
|-----------------------|--------------------------------------|
|--------------0--------|-(0)--------------------0-------------|
|--2-1--0--2--(2)-------|-(2)-0--2-2--0-0-2-2--2----0--0-2-2-2-|


  GtrGtrGtr I  Gtr IV  Gtr I    Gtr IV  Gtr I            Gtr IV
   TP TP TP  TP TP      TP       TP      TP            TP TP
   E  E  Q   E  Q.      E        E       Q             E  Q.
|--------------------|---------------------------------------------------|
|--9--9--9--10-10----|--9--------9-------9------------10-10--------------|
|-12-12-12--13-13----|-12-------12------12------------13-13--------------|
|--------------------|---------------------------------------------------|
|--------------------|---------------------------------------------------|
|--------------------|---------------------------------------------------|
|--------------------|---------------------------------------------------|
|
|                      Gtr V
|                       |--3--|
|  W                    S  S  S  T  T S  S  S  T  T S  e  E   E      +E
|--------------------|---------------------------------------------------|
|--------------------|---------------------------------------------------|
|--------------------|---------------------------------9--9---9pb10r=(9)-|
|--------------------|-12-11-11-11p10p9-12-11-11p10p9--------11pb12r(11)-|
|--------------------|---------------------------------------------------|
|--------------------|---------------------------------------------------|
|--2-----------------|---------------------------------------------------|


  Gtr I GtrGtr I
   TP    TP TP                  TP
   E     E  H.                  H      Q   E      E     E   E  H.
|---------------------------|------------------------|--------------------|
|-10----10-10---------------|--10----------------10--|--------------------|
|-13----13-13---------------|--13-----12--12b13-(12)-|--------------------|
|---------------------------|------------------------|---------5----------|
|---------------------------|------------------------|------4-------------|
|---------------------------|------------------------|--5-----------------|
|---------------------------|------------------------|--------------------|
|
|                                                                   Gtr II
|  S  S  e  S   S e e e  Q     +H.         Q           +E  +H        Q.
|---------------------------|------------------------|--------------------|
|------------------------9--|--(9)-------------------|--------------------|
|-------------------9-9-11--|-(11)-------------------|--------------------|
|-12-11--9-11--10-9---------|--------------9---------|-(9)-(9)------(9)---|
|---------------------------|------------------------|--------------------|
|---------------------------|------------------------|--------------------|
|---------------------------|------------------------|--------------------|


 Outro
  Slower Q=72
  C#C5B5C#C5B5E5  C#5    C5B5C#C5B5E5
  S S e S S e e E Q    S S e S S e e E Q
|--------------------|--------------------|
|--------------------|--------------------|
|--------------------|-----------------0--|
|-------------2-2----|-------------2-2----|
|-4-3-2-4-3-2-2-2-4--|-4-3-2-4-3-2-2-2-4--|
|-4-3-2-4-3-2-0-0-4--|-4-3-2-4-3-2-0-0-4--|
|-2-1-0-2-1-0-----2--|-2-1-0-2-1-0-----2--|
|
| S S e S S e e E Q    S S e S S e e E Q
|--------------------|--------------------|
|--------------------|--------------------|
|--------------------|--------------------|
|-------------2-2----|-------------2-2----|
|-4-3-2-4-3-2-2-2-4--|-4-3-2-4-3-2-2-2-4--|
|-4-3-2-4-3-2-0-0-4--|-4-3-2-4-3-2-0-0-4--|
|-2-1-0-2-1-0-----2--|-2-1-0-2-1-0-----2--|


    C5B5C#C5B5E5  C#   C#C5B5C#C5B5E5
                                       Gtr IV
                                        TP
  S S e S S e e E Q    S S e S S e e E  Q
|--------------------|-----------------10--|
|--------------------|---------------------|
|-0---------------6--|---------------------|
|-------------2-2----|-------------2-2-----|
|-4-3-2-4-3-2-2-2-4--|-4-3-2-4-3-2-2-2-----|
|-4-3-2-4-3-2-0-0----|-4-3-2-4-3-2-0-0-----|
|-2-1-0-2-1-0--------|-2-1-0-2-1-0---------|
|
| S S e S S e e E Q    S S e S S e e E  Q
|--------------------|---------------------|
|--------------------|---------------------|
|--------------------|---------------------|
|-------------2-2----|-------------2-2-----|
|-4-3-2-4-3-2-2-2-4--|-4-3-2-4-3-2-2-2--4--|
|-4-3-2-4-3-2-0-0-4--|-4-3-2-4-3-2-0-0--4--|
|-2-1-0-2-1-0-----2--|-2-1-0-2-1-0------2--|


    C#C5B5C#C5B5E5        C#C5B5C#C5B5E5
    Gtr I           Gtr IVGtr I           Gtr IV
                     TP                    TP
    S S e S S e e E  Q    S S e S S e e E  Q
||------------------10--|-----------------10---||
||----------------------|----------------------||
||o---------------------|---------------------o||
||--------------2-2-----|-------------2-2------||
||o-4-3-2-4-3-2-2-2-----|-4-3-2-4-3-2-2-2-----o||
||--4-3-2-4-3-2-0-0-----|-4-3-2-4-3-2-0-0------||
||--2-1-0-2-1-0---------|-2-1-0-2-1-0----------||
|
|   S S e S S e e E  Q    S S e S S e e E  Q
||----------------------|----------------------||
||----------------------|----------------------||
||o---------------------|---------------------o||
||--------------2-2-----|-------------2-2------||
||o-4-3-2-4-3-2-2-2--4--|-4-3-2-4-3-2-2-2--4--o||
||--4-3-2-4-3-2-0-0--4--|-4-3-2-4-3-2-0-0--4---||
||--2-1-0-2-1-0------2--|-2-1-0-2-1-0------2---||


                                                C#
            Gtr I                                  Gtr IV
    TP
   +H.        Q      +H      Q    Q      +H.         Q
|-(10)------(10)--|-(10)---------10---|-(10)-------(10)--|
|-----------------|---------14--(14)--|-(14)-------(14)--|
|-----------------|-------------------|------------------|
|-----------------|-------------------|------------------|
|-----------------|-------------------|------------------|
|-----------------|-------------------|------------------|
|-----------------|-------------------|------------------|
|
|  +W                +W                  +H     Q    Q
|-----------------|-------------------|------------------|
|-----------------|-------------------|------------------|
|-----------------|-------------------|------------------|
|-----------------|-------------------|---------5----5---|
|--(4)------------|--(4)--------------|--(4)----4----4---|
|--(4)------------|--(4)--------------|--(4)----3----3---|
|--(2)------------|--(2)--------------|--(2)----2----2---|


  C#
            TP        TP               TP
   +H       H        +W               +H     H       Q   +Q    H
|-(10)-----10-----|-(10)-----------|-(10)---------|-10--(10)\-------*|
|-(14)-----14-----|-(14)-----------|-(14)---------|-14--(14)\-------*|
|-----------------|----------------|--------------|-----------------*|
|-----------------|----------------|---------0----|-----------------*|
|-----------------|----------------|--------------|-----------------*|
|-----------------|----------------|--------------|-----------------*|
|-----------------|----------------|--------------|-----------------*|
|
|   Q   Q   Q  Q      Q   Q  Q  Q      W             Q    Q    H
|-----------------|----------------|--------------|-----------------*|
|-----------------|----------------|--------------|-----------------*|
|-----------------|----------------|--------------|-----------------*|
|---5---5---5--5--|---5---5--5--5--|---5----------|--5----5\--------*|
|---4---4---4--4--|---4---4--4--4--|---4----------|-----------------*|
|---3---3---3--3--|---3---3--3--3--|---3----------|-----------------*|
|---2---2---2--2--|---2---2--2--2--|---2----------|-----------------*|




--------------------------------------------------------------------------------


Duration Legend
---------------
W - whole; H - half; Q - quarter; E - 8th; S - 16th; T - 32nd; X - 64th; a - acciaccatura
+ - note tied to previous; . - note dotted; .. - note double dotted
Uncapitalized letters represent notes that are staccato (1/2 duration)
Irregular groupings are notated above the duration line
Duration letters will always appear directly above the note/fret number it represents the
duration for.  Duration letters with no fret number below them represent rests.  Multi-
bar rests are notated in the form Wxn, where n is the number of bars to rest for.  Low
melody durations appear below the staff

Tablature Legend
----------------
 h   - hammer-on
 p   - pull-off
 b   - bend
 pb  - pre-bend
 r   - bend release (if no number after the r, then release immediately)
 /\  - slide into or out of (from/to "nowhere")
 s   - legato slide
 S   - shift slide
 - natural harmonic
[n]  - artificial harmonic
n(n) - tapped harmonic
 ~   - vibrato
 tr  - trill
 T   - tap
 TP  - trem. picking
 PM  - palm muting
\n/  - tremolo bar dip; n = amount to dip
 \n  - tremolo bar down
 n/  - tremolo bar up
/n\  - tremolo bar inverted dip
 =   - hold bend; also acts as connecting device for hammers/pulls
 <> - volume swell (louder/softer)
 x   - on rhythm slash represents muted slash
 o   - on rhythm slash represents single note slash

Misc Legend
-----------
 |  - bar
||  - double bar
||o - repeat start
o|| - repeat end
*|  - double bar (ending)
 :  - bar (freetime)
 $  - Segno
 &  - Coda
Tempo markers -  = BPM(8/16=s8/s16), where s8 = swing 8ths, s16 = swing 16ths



            
            
Suggest correction
Creating personal tab
Creating personal tab
You can edit any tab online and save it as your Personal.

You can edit, replace or remove any tab part or add personal notes – all changes will be seen only by you.

Personal tabs can be accessed anytime from any device, even offline.
Learn more »
Give kudos to tab author, rate the tab!
1 2 3 4 5
comments
print report bad tab
guest
You may want to rate the tab now too:
select rating
Wanna post a correction for this tab? Suggest correction