Oops, an error
Loading. Please wait.

Evolution tab

version 2
version 2

Whole song

Interactive

by Korn
14,617 views 3 this week
14 commentsread comments
1 2 3 4 5
x 4
add to favorites
×
Save as Personal and add changes to this tab that will be seen only by you. Learn more ›
×
You can save this tab as Personal to edit and correct it or add notes. All changes will be seen only by you. Learn more »
launch autoscroll
font size
0
reset
how to read this tab
guitar tuner
edit
Autoscroll
slow
fast
+/-
esc
set tempo
stop
Author
Difficulty
Artist-KoRn 
Album-the white album 

Tuning (ADGCFad)
Tabbed by ed-kornrockerten- xyou_plus_mex@yahoo.com
This is a more correct tab check it yo!

Intro:(synth)
d|------------------------------------------|
a|-15---13---10----11~--15~--13~~~------10~>|
F|------------------------------------------|
C|------------------------------------------|
G|------------------------------------------|
D|------------------------------------------|
A|------------------------------------------|

(guitar) 
d|----------|
a|----------|
F|----------|
C|----------|
G|-7x-7x-8x-|
D|-7x-7x-8x-|
A|-5x-5X-6X-|
  .  .  .   .palm mute

Pre-Chorus:
d|--------------------------------|
a|--------------------------------|
F|--------------------------------|
C|--------------------------------|
G|-877---77-777-777-888-88-888-88-|
D|-877---77-777-777-888-88-888-88-|
A|-655---55-555-555-666-66-666-66-|
   ...   .. ... ... ... .. ... ..  .palm mute

Fill1:
d|--------------------------------------------------------------------------
a|--------------------------------------------------------------------------
F|--------------------------------------------------------------------------
C|--------------------------------------------------------------------------
G|------10-----10------------10----10----------12----10---------10----10----
D|---12------12------12---12----12-----12----13----13------11--10---10----10
A|-11------11------11---10-----10-----10----11-----11-----9---8-----8---8---
   . .   .   . ..  . . . . .  . . . .  . .   . . .   . .   . . . .   . .  . 

Chorus:
d|-------------------------------------------------------------------|
a|-------------------------------------------------------------------|
F|-------------------------------------------------------------------|
C|-------------------------------------------------------------------|  (guitar1)
G|-77777777--575-1010101010101010-575-1212121212121212-777777777-575-|
D|-77777777--575-1010101010101010-575-1212121212121212-777777777-575-|
A|-55555555--353-8-8-8-8-8-8-8-8--353-1010101010101010-555555555-353-|

d|-------------------|
a|-------------------|
F|-------------------|
C|-------------------|(guitar2)
G|-7910-7910-710-575-|
D|---------------575-|
A|---------------353-|

d|--------------------------------------------------|
a|--------------------------------------------------|
F|--------------------------------------------------|
C|-212121212121212119191919191919191717171717171717-|   (synth)
G|-xxxxxxxxxxxxxxxxxxxxxxxxxxxxxxxxxxxxxxxxxxxxxxxx-|
D|-191919191919191917171717171717171515151515151515-|
A|--------------------------------------------------|

Fill2:
d|------------------------------------------|
a|-15~~-13~~-10~~-11~~~-8~\\\\\\\\\\\\\\\\\-|
F|------------------------------------------|
C|------------------------------------------|
G|------------------------------------------|
D|------------------------------------------|
A|------------------------------------------|

Verse:(synth)
d|------------------------------------------|
a|-15---13---10----11~--15~--13~~~------10~>|
F|------------------------------------------|
C|------------------------------------------|
G|------------------------------------------|
D|------------------------------------------|
A|------------------------------------------|

(guitar) 
d|----------|
a|----------|
F|----------|
C|----------|
G|-7x-7x-8x-|
D|-7x-7x-8x-|
A|-5x-5X-6X-|
  .  .  .   .palm mute

Pre-Chorus:
d|--------------------------------|
a|--------------------------------|
F|--------------------------------|
C|--------------------------------|
G|-877---77-777-777-888-88-888-88-|
D|-877---77-777-777-888-88-888-88-|
A|-655---55-555-555-666-66-666-66-|
   ...   .. ... ... ... .. ... ..  .palm mute

Fill1:
d|--------------------------------------------------------------------------
a|--------------------------------------------------------------------------
F|--------------------------------------------------------------------------
C|--------------------------------------------------------------------------
G|------10-----10------------10----10----------12----10---------10----10----
D|---12------12------12---12----12-----12----13----13------11--10---10----10
A|-11------11------11---10-----10-----10----11-----11-----9---8-----8---8---
   . .   .   . ..  . . . . .  . . . .  . .   . . .   . .   . . . .   . .  . 
Chorus:(guitar1)
d|-------------------------------------------------------------------|
a|-------------------------------------------------------------------|
F|-------------------------------------------------------------------|
C|-------------------------------------------------------------------|  
G|-77777777--575-1010101010101010-575-1212121212121212-777777777-575-|
D|-77777777--575-1010101010101010-575-1212121212121212-777777777-575-|
A|-55555555--353-8-8-8-8-8-8-8-8--353-1010101010101010-555555555-353-|

d|-------------------|
a|-------------------|
F|-------------------|
C|-------------------|(guitar2)
G|-7910-7910-710-575-|
D|---------------575-|
A|---------------353-|

d|--------------------------------------------------|
a|--------------------------------------------------|
F|--------------------------------------------------|
C|-212121212121212119191919191919191717171717171717-|   (synth)
G|-xxxxxxxxxxxxxxxxxxxxxxxxxxxxxxxxxxxxxxxxxxxxxxxx-|
D|-191919191919191917171717171717171515151515151515-|
A|--------------------------------------------------|



Bridge1:
d|-------------------------------------------------------------------------|
a|-------------------------------------------------------------------------|
F|-------------------------------------------------------------------------|
C|-1414141513-xxxxxxxx-1414141513-xxxxxxxx-1919191915-xxxxxxxxx-2121212115-|
G|-xxxxxxxxxx-xxxxxxxx-xxxxxxxxxx-xxxxxxxx-xxxxxxxxxx-xxxxxxxxx-xxxxxxxxxx-|
D|-1212121311-xxxxxxxx-1212121311-xxxxxxxx-1717171713-xxxxxxxxx-1919191913-|
A|-------------------------------------------------------------------------|

Bridge2:
d|-----------------------------------------------|
a|-----------------------------------------------|
F|-----------------------------------------------|
C|-----------------------------------------------|
G|-----------------------------------------------|
D|-----------------------------------------------|
A|-4/55-4/77---4/55-4/77---8\77-8\55---8\77-8\55-|
  .... ....   .... ....   .... ....   .... ....  .palm mute

Bridge3:
d|-------------------------------------------------------|
a|-------------------------------------------------------|
F|-------------------------------------------------------|
C|-------------------------------------------------------|
G|-------------------------------------------------------|
D|-------------------------------------------------------|
A|-4/5\4/77757-4/55\4/77757-8\77/8\5555544-8\77\8/555544-|
  ............ ............ ............. .............   .palm mute

Bridge4:
d|-----------------------------------------------------------|
a|-----------------------------------------------------------|
F|-----------------------------------------------------------|
C|-----------------------------------------------------------|
G|-6/77\6/99979-6/77\6/99979-10\99/10\777766-10\99/10\777766-|
D|-6/77\6/99979-6/77\6/99979-10\99/10\777766-10\99/10\777766-|
A|-4/55\4/77757-4/55\4/77757--8\77/-8\555544--8\77/-8\555544-|

Chorus:
d|-------------------------------------------------------------------|
a|-------------------------------------------------------------------|
F|-------------------------------------------------------------------|
C|-------------------------------------------------------------------|  (guitar1)
G|-77777777--575-1010101010101010-575-1212121212121212-777777777-575-|
D|-77777777--575-1010101010101010-575-1212121212121212-777777777-575-|
A|-55555555--353-8-8-8-8-8-8-8-8--353-1010101010101010-555555555-353-|

d|-------------------|
a|-------------------|
F|-------------------|
C|-------------------|(guitar2)
G|-7910-7910-710-575-|
D|---------------575-|
A|---------------353-|

d|--------------------------------------------------|
a|--------------------------------------------------|
F|--------------------------------------------------|
C|-212121212121212119191919191919191717171717171717-|   (synth)
G|-xxxxxxxxxxxxxxxxxxxxxxxxxxxxxxxxxxxxxxxxxxxxxxxx-|
D|-191919191919191917171717171717171515151515151515-|
A|--------------------------------------------------|




Suggest correction
Creating personal tab
Creating personal tab
You can edit any tab online and save it as your Personal.

You can edit, replace or remove any tab part or add personal notes – all changes will be seen only by you.

Personal tabs can be accessed anytime from any device, even offline.
Learn more »
comments
print report bad tab
14 comments total. Showing first comments.
-1 reply
ibanezdude34 10 Jul 30, 2007 05:42 AM

Great ****ing tab dude if anyone says its completely wrong they are dumb ****s

+1 reply
a god 125 Aug 03, 2007 06:13 PM

good tab. and the album doesnt have a name its untitled not the white album

+1 reply
shaggy187 10 Aug 05, 2007 08:37 PM

I didn't know this but apparently I'm a dumb f**k

guest
You may want to rate the tab now too:
select rating
Wanna post a correction for this tab? Suggest correction