Oops, an error
Loading. Please wait.

Faget bass

version 2
version 2

Whole song

by Korn
3,830 views 6 this week
no commentswrite comment
1 2 3 4 5
2 more votes to show rating
add to favorites
×
Save as Personal and add changes to this tab that will be seen only by you. Learn more ›
×
You can save this tab as Personal to edit and correct it or add notes. All changes will be seen only by you. Learn more »
launch autoscroll
font size
0
reset
guitar tuner
edit
Autoscroll
slow
fast
+/-
esc
set tempo
stop
Author
Difficulty
----------------------------------------------------------------------------
			       FAGET - Korn
----------------------------------------------------------------------------

Tabbed By : Michael Hylands (mhylands)
e-mail: mhylands@hotmail.com

Tuning: 5-String Bass, tuned down one whole step [ADGCF]

INTRO

Rest x 8

F|----------------|----------------|----------------|----------------|
C|----------------|----------------|----------------|----------------|
G|----------------|----------------|----------------|----------------|
D|------------8888|---------78-7---|------------8888|---------78-7---|
A|0-000-00-000----|0-000-00---9-78-|0-000-00-000----|0-000-00---9-78-|

F|----------------|----------------|----------------|----------------|
C|----------------|----------------|----------------|----------------|
G|----------------|----------------|----------------|----------------|
D|------------8888|---------78-7---|------------8888|---------78-7---|
A|0-000-00-000----|0-000-00---9-78-|0-000-00-000----|0-000-00---9-78-|


VERSE

F|----------------|----------------|----------------|----------------|
C|----------------|----------------|----------------|----------------|
G|----------------|----------------|----------------|----------------|
D|----------------|----------------|----------------|----------------|
A|0-000-00-0001111|0-000-00-0001111|0-000-00-0001111|0-000-00-0001111|

F|----------------|----------------|----------------|----------------|
C|----------------|----------------|----------------|----------------|
G|----------------|----------------|----------------|----------------|
D|----------------|----------------|----------------|----------------|
A|0-000-00-0001111|0-000-00-0001111|0-000-00-0001111|0-000-00-0001111|


PRECHORUS

F|----------------|----------------|----------------|----------------|
C|----------------|----------------|----------------|----------------|
G|----------------|----------------|----------------|----------------|
D|------------8888|---------78-7---|------------8888|---------78-7---|
A|0-000-00-000----|0-000-00---9-78-|0-000-00-000----|0-000-00---9-78-|

F|----------------|----------------|----------------|----------------|
C|----------------|----------------|----------------|----------------|
G|----------------|----------------|----------------|----------------|
D|------------8888|---------78-7---|------------8888|---------78-7---|
A|0-000-00-000----|0-000-00---9-78-|0-000-00-000----|0-000-00---9-78-|


VERSE

F|----------------|----------------|----------------|----------------|
C|----------------|----------------|----------------|----------------|
G|----------------|----------------|----------------|----------------|
D|----------------|----------------|----------------|----------------|
A|0-000-00-0001111|0-000-00-0001111|0-000-00-0001111|0-000-00-0001111|

F|----------------|----------------|----------------|----------------|
C|----------------|----------------|----------------|----------------|
G|----------------|----------------|----------------|----------------|
D|----------------|----------------|----------------|----------------|
A|0-000-00-0001111|0-000-00-0001111|0-000-00-0001111|0-000-00-0001111|


PRECHORUS

F|----------------|----------------|----------------|----------------|
C|----------------|----------------|----------------|----------------|
G|----------------|----------------|----------------|----------------|
D|------------8888|---------78-7---|------------8888|---------78-7---|
A|0-000-00-000----|0-000-00---9-78-|0-000-00-000----|0-000-00---9-78-|

F|----------------|----------------|----------------|----------------|
C|----------------|----------------|----------------|----------------|
G|----------------|----------------|----------------|----------------|
D|------------8888|---------78-7---|------------8888|---------78-7---|
A|0-000-00-000----|0-000-00---9-78-|0-000-00-000----|0-000-00---9-78-|


CHORUS

F|----------------|----------------|----------------|----------------|
C|----------------|----------------|----------------|----------------|
G|----------------|----------------|----------------|----------------|
D|----------------|----------------|----------------|----------------|
A|0-000-00-0001-1-|0-000-00-0001-1-|0-000-00-0001-1-|0-000-00-0001-1-|


VERSE

F|----------------|----------------|----------------|----------------|
C|----------------|----------------|----------------|----------------|
G|----------------|----------------|----------------|----------------|
D|----------------|----------------|----------------|----------------|
A|0-000-00-0001111|0-000-00-0001111|0-000-00-0001111|0-000-00-0001111|

F|----------------|----------------|----------------|----------------|
C|----------------|----------------|----------------|----------------|
G|----------------|----------------|----------------|----------------|
D|----------------|----------------|----------------|----------------|
A|0-000-00-0001111|0-000-00-0001111|0-000-00-0001111|0-000-00-0001111|


PRECHORUS

F|----------------|----------------|----------------|----------------|
C|----------------|----------------|----------------|----------------|
G|----------------|----------------|----------------|----------------|
D|------------8888|---------78-7---|------------8888|---------78-7---|
A|0-000-00-000----|0-000-00---9-78-|0-000-00-000----|0-000-00---9-78-|

F|----------------|----------------|----------------|----------------|
C|----------------|----------------|----------------|----------------|
G|----------------|----------------|----------------|----------------|
D|------------8888|---------78-7---|------------8888|---------78-7---|
A|0-000-00-000----|0-000-00---9-78-|0-000-00-000----|0-000-00---9-78-|


CHORUS

F|----------------|----------------|----------------|----------------|
C|----------------|----------------|----------------|----------------|
G|----------------|----------------|----------------|----------------|
D|----------------|----------------|----------------|----------------|
A|0-000-00-0001-1-|0-000-00-0001-1-|0-000-00-0001-1-|0-000-00-0001-1-|


INTERLUDE

Rest x 10

F|----------------|------------------|
C|----------------|------------------|
G|----------------|------------------|
D|----------------|------------------|
A|----------------|----------4~------|


BRIDGE

F|----------------|----------------|----------------|----------------|
C|----------------|----------------|----------------|----------------|
G|----------------|----------------|----------------|----------------|
D|----7-------8--8|----7-------8--8|----7-------8--8|----7-------8--8|
A|0000-----000-00-|0000----0000-00-|0000-----000-00-|0000----0000-00-|

F|----------------|----------------|----------------|----------------|
C|----------------|----------------|----------------|----------------|
G|----------------|----------------|----------------|----------------|
D|----7-------8--8|----7-------8--8|----7-------8--8|----7-------8--8|
A|0000-----000-00-|0000----0000-00-|0000-----000-00-|0000----0000-00-|

F|----------------|----------------|----------------|----------------|
C|----------------|----------------|----------------|----------------|
G|----------------|----------------|----------------|----------------|
D|----2-----2-3-2-|----2-----2-3-2-|----2-----2-3-2-|----2-----2-3-2-|
A|0-----1---------|0-----1---------|0-----1---------|0-----1---------|

F|----------------|----------------|----------------|----------------|
C|----------------|----------------|----------------|----------------|
G|----------------|----------------|----------------|----------------|
D|----2-----2-3-2-|----2-----2-3-2-|----2-----2-3-2-|----2-----2-3-2-|
A|0-----1---------|0-----1---------|0-----1---------|0-----1---------|

F|----------------|----------------|----------------|----------------|
C|----------------|----------------|----------------|----------------|
G|----------------|----------------|----------------|----------------|
D|----2-----2-3-2-|----2-----2-3-2-|----2-----2-3-2-|----2-----2-3-2-|
A|0-----1---------|0-----1---------|0-----1---------|0-----1---------|

Rest x 4

F|----------------|----------------|----------------|----------------|
C|----------------|----------------|----------------|----------------|
G|----------------|----------------|----------------|----------------|
D|----------------|----------------|----------------|----------------|
A|0~--------------|----------------|----------------|----------------|


PRECHORUS

F|----------------|----------------|----------------|----------------|
C|----------------|----------------|----------------|----------------|
G|----------------|----------------|----------------|----------------|
D|------------8888|---------78-7---|------------8888|---------78-7---|
A|0-000-00-000----|0-000-00---9-78-|0-000-00-000----|0-000-00---9-78-|

F|----------------|----------------|----------------|----------------|
C|----------------|----------------|----------------|----------------|
G|----------------|----------------|----------------|----------------|
D|------------8888|---------78-7---|------------8888|---------78-7---|
A|0-000-00-000----|0-000-00---9-78-|0-000-00-000----|0-000-00---9-78-|


CHORUS

F|----------------|----------------|----------------|----------------|
C|----------------|----------------|----------------|----------------|
G|----------------|----------------|----------------|----------------|
D|----------------|----------------|----------------|----------------|
A|0-000-00-0001-1-|0-000-00-0001-1-|0-000-00-0001-1-|0-000-00-0001-1-|

F|----------------|----------------|----------------|----------------|
C|----------------|----------------|----------------|----------------|
G|----------------|----------------|----------------|----------------|
D|----------------|----------------|----------------|----------------|
A|0-000-00-0001-1-|0-000-00-0001-1-|0-000-00-0001-1-|0-000-00-0001-1-|



| /  slide up
| \  slide down
| h  hammer-on
| p  pull-off
| ~  vibrato
| +  harmonic
| x  Mute note
============================================================================
Suggest correction
Creating personal tab
Creating personal tab
You can edit any tab online and save it as your Personal.

You can edit, replace or remove any tab part or add personal notes – all changes will be seen only by you.

Personal tabs can be accessed anytime from any device, even offline.
Learn more »
Give kudos to tab author, rate the tab!
1 2 3 4 5
comments
print report bad tab
guest
You may want to rate the tab now too:
select rating
Wanna post a correction for this tab? Suggest correction