Oops, an error
Loading. Please wait.

Fake tab

version 3
version 3

Whole song

  • Some riffs were moved about one string backward for better sound.

Interactive

by Korn
166 views 1 this week
no commentswrite comment
1 2 3 4 5
2 more votes to show rating
add to favorites
×
Save as Personal and add changes to this tab that will be seen only by you. Learn more ›
×
You can save this tab as Personal to edit and correct it or add notes. All changes will be seen only by you. Learn more »
launch autoscroll
font size
0
reset
how to read this tab
guitar tuner
edit
Autoscroll
slow
fast
+/-
esc
set tempo
stop
About this tab version
Some riffs were moved about one string backward for better sound. Was this info helpful? Yes No
Band - Korn            
Album - Self Titled
Year - 1994 
Song - 09. Fake 
Duration - 04:51
Tuning : Standard A (7-string) A-D-G-C-F-A-D
This tab created Samuel Šipoš from Slovakia.  (Check my Korn kover channel on YT)

MAIN : Munky & Head [Distortion pedal]

D--------------------|-------|
A--------------------|-------|
F -------------------|-------|
C--------------------|-------|
G--------------------|-------|
D-2-3-4-2-3-3-2-3-2-2|-2-3-4-|
A-0-1-2-0-1-1-0-1-0-0|-0-1-2-|

VERSE : Munky [Clean : Chorus pedal]
     
D------------------------|
A----19--17----19--17--14| (12) 
F------------------------| 
C------------------------|                  
G------------------------|
D------------------------|
A------------------------|

VERSE : Head [Distortion pedal w/ Chorus pedal]

D-----(0)-----------------| 
A------0------------------|
F--4---4-------4--5--6----|
C--x---x-------x--x--x----|               
G--2---3-------2--3--4----|
D-------------------------|
A-------------------------|

MAIN : Munky & Head [Distortion pedal]

D--------------------|-------|
A--------------------|-------|
F -------------------|-------|
C--------------------|-------|
G--------------------|-------|
D-2-3-4-2-3-3-2-3-2-2|-2-3-4-|
A-0-1-2-0-1-1-0-1-0-0|-0-1-2-|

PRE-CHORUS : Munky & Head [Distortion pedal]
                            x2
D------------------------------------------------------|
A------------------------------------------------------|
F------------------------------------------------------|
C-----15----16---15----15----16------------------------|
G-----x-----x----x-----x-----x------7s-9---------------|
D-----13----14---13^---13----14-----5s-7---------------|
A-0-0---0-0---0-0---0-0--0-0----0-0--------------------|

CHORUS : Munky & Head , then Munky with clean "Chorus" pedal 

D---|------------------|
A---|------------------|
F---|------------------|  
C-0-|--------9---------|  
G-0-|------7---7-------|  
D-0-|----8-------------|
A-0-|------------------|

VERSE : Munky [Clean : Chorus pedal]
     
D----------------------------------|
A----------------------------------|
F----------------------------------|
C----------------------------------|
G-----9--7-----9--7--4-------------| (2)
D----------------------------------|
A----------------------------------|

VERSE : Head [Distortion pedal w/ Chorus pedal]

D-----(0)-----------------| 
A------0------------------|
F--4---4-------4--5--6----|
C--x---x-------x--x--x----|
G--2---3-------2--3--4----|
D-------------------------|
A-------------------------|

MAIN : Munky & Head [Distortion pedal]

D--------------------|-------|
A--------------------|-------|
F -------------------|-------|
C--------------------|-------|
G--------------------|-------|
D-2-3-4-2-3-3-2-3-2-2|-2-3-4-|
A-0-1-2-0-1-1-0-1-0-0|-0-1-2-|

PRE-CHORUS : Munky & Head [Distortion pedal]
                            x2
D------------------------------------------------------|
A------------------------------------------------------|
F------------------------------------------------------|
C-----15----16---15----15----16------------------------|
G-----x-----x----x-----x-----x------7s-9---------------|
D-----13----14---13^---13----14-----5s-7---------------|
A-0-0---0-0---0-0---0-0--0-0----0-0--------------------|

CHORUS : Munky & Head , then Munky with clean "Chorus" pedal 

D---|------------------|
A---|------------------|
F---|------------------|  
C-0-|--------9---------|  
G-0-|------7---7-------|  
D-0-|----8--------(7)--|
A-0-|------------------|

CHORUS 2 : Munky [Clean : Chorus pedal]

D------------------------|
A------------------------|
F------------9-----------|
C----------7---7---------|       (REPEAT)
G--------8---------------|
D---7--------------------|
A------------------------|

CHORUS 2 : Head (Violin effect) [Distortion pedal, Reverb]

D-----------------------------------------|
A-----------------------------------------|
C-----------------------------------------|
F--13--11--9--------13--14---9--4---------|    (Handle with volume knob on guitar)
G-----------------------------------------|
D-----------------------------------------|
A-----------------------------------------|

CHORUS 3 : Munky & Head, then Munky with clean "Chorus" pedal


D---|-----------|
A---|-----------|
F---|-----------|  
C-0-|---9-------|  
G-0-|---7-------|  
D-0-|---8-------|
A-0-|-----------| (Last with tremolo bar or whammy down)

MAIN : Munky & Head [Distortion pedal]

D--------------------|-------|
A--------------------|-------|
F -------------------|-------|
C--------------------|-------|
G--------------------|-------|
D-2-3-4-2-3-3-2-3-2-2|-2-3-4-|
A-0-1-2-0-1-1-0-1-0-0|-0-1-2-|



MAIN 2 : Munky & Head [Distortion pedal]

D--------------------|-------------|
A--------------------|-------------|
F--------------------|-------------|
C--------------------|-------------|
G--------------------|-------------|
D-2-3-4/-2/-3-3/-2/-3/-2/-2--------|
A-0-1-2/-0/-1-1/-0/-1/-0/-0--------|

Write a comment when something is wrong .
Suggest correction
Creating personal tab
Creating personal tab
You can edit any tab online and save it as your Personal.

You can edit, replace or remove any tab part or add personal notes – all changes will be seen only by you.

Personal tabs can be accessed anytime from any device, even offline.
Learn more »
Give kudos to tab author, rate the tab!
1 2 3 4 5
comments
print report bad tab
guest
You may want to rate the tab now too:
select rating
Wanna post a correction for this tab? Suggest correction