Oops, an error
Loading. Please wait.

Falling Away From Me Bass Tab

version 1
version 1

Whole song

17,767 views 33 this week
2 commentsread comments
1 2 3 4 5
x 11
add to favorites
launch autoscroll
font size
0
reset
guitar tuner
backing track
0:00
0:00
Autoscroll
slow
fast
+/-
esc
set tempo
stop
Help us to improve Ultimate-Guitar.com Take our survey!
×
Tuning: ( low to high: A D G C )

[Intro]
(Riff A)
( 0:00-0:37 )
G|-------------------------------------------------------|
D|-------------------------------------------------------| (x7)
A|-------------------------------------------------------|
E|--6---0---6---0---6---0---0----------------------------|

[Riff B]
( 0:37-0:55 )
G|-------------------------------------------------------|
D|-------------------------------------------------------|
A|-------------------------------------------------------|
E|--0---0-----0---0-----0---0-----0---0------------------|

[Riff A] 
( 0:55-1:04 ) 
G|-------------------------------------------------------|
D|-------------------------------------------------------|
A|-------------------------------------------------------|
E|--6---0---6---0---6---0---0----------------------------|

[Riff B] 
( 1:04-1:22 )
G|-------------------------------------------------------|
D|-------------------------------------------------------|
A|-------------------------------------------------------|
E|--0---0-----0---0-----0---0-----0---0------------------|

[Riff C]
( 1:22-1:41 )
G|-------------------------------------------------------|
D|-------------------------------------------------------|
A|---------1---------------------------------------------|
E|--0-------------3-----------1---1---1-----0------------|

[Riff B]
( 1:41-2:08 )
G|-------------------------------------------------------|
D|-------------------------------------------------------|
A|-------------------------------------------------------|
E|--0---0-----0---0-----0---0-----0---0------------------|

[Riff C] 
( 2:08-2:28 )
G|-------------------------------------------------------|
D|-------------------------------------------------------|
A|---------1---------------------------------------------|
E|--0------------3-----1---1---1---0---------------------|

[Riff D] 
( 2:37-2:55 )
G|-9--------------9-----------------9--------------------|
D|------9-----9----------9-----9--------7---7------------|
A|-------------------------------------------------------|
E|-------------------------------------------------------|

[Riff E] 
( 2:55-3:12 )
G|-------------------------------------------------------|
D|-------------------------------------------------------|
A|--------2-----0----------------2-----0-----------------|
E|--0----------------1-----0-----------------1---1---1--0|

[Riff A] 
( 3:12-3:32 )
G|-------------------------------------------------------|
D|-------------------------------------------------------|
A|-------------------------------------------------------|
E|--6---0---6---0---6---0---0----------------------------|

[Riff C] 
( 3:32-4:09 )
G|-------------------------------------------------------|
D|-------------------------------------------------------|
A|-----------1-------------------------------------------|
E|----0------------3-----1---1---1---0-------------------|

[Riff F]
G|-------------------------------------------------------|
D|-------------------------------------------------------|
A|-------------------------------------------------------|
E|----0-----0-----0-----0--------------------------------|
Suggest correction
comments
print report bad tab
2 comments total.
0 reply
|Super_Naut+ 10 Jun 22, 2004 12:00 AM

he uses a five string

0 reply
KoRn_Slipknot1 10 Apr 18, 2005 12:00 AM

we know but some songs you can play on a 4 string

guest
You may want to rate the tab now too:
select rating
Wanna post a correction for this tab? Suggest correction