Oops, an error
Loading. Please wait.

Falling Away From Me intro tab

version 1
by Korn
28,712 views 15 this week
13 commentsread comments
1 2 3 4 5
x 24
add to favorites
×
Save as Personal and add changes to this tab that will be seen only by you. Learn more ›
×
You can save this tab as Personal to edit and correct it or add notes. All changes will be seen only by you. Learn more »
launch autoscroll
font size
0
reset
how to read this tab
guitar tuner
backing track
0:00
0:00
edit
Autoscroll
slow
fast
+/-
esc
set tempo
stop
Author
e------------------|---------------------
B----14-13---------|---14-13-------------
G-15------13--15---|-15-----13---15------
D-----------13-----|----------13---15----
A------------------|---------------------
D------------------|---------------------

All the other tabs had the wrong intro to it. I hope this will help. 
Suggest correction
Creating personal tab
Creating personal tab
You can edit any tab online and save it as your Personal.

You can edit, replace or remove any tab part or add personal notes – all changes will be seen only by you.

Personal tabs can be accessed anytime from any device, even offline.
Learn more »
comments
print report bad tab
13 comments total. Showing first comments.
0 reply
givson 0 Feb 13, 2002 07:00 PM

the rest of the intros are pretty crap but this is the one that helped me - little_dude118@hotmail.com

0 reply
astronomy71 0 Mar 07, 2002 07:00 PM

awsome!!!!!!!!!!!!!!!!!!!!!!!!!!!!!!!!!!!!!!!!!!!!!!!!!!!!!!!!!!!!!!!!!!!!!!!!!

-1 reply
IbanezSARB 10 Feb 15, 2003 07:00 PM

e---12--15--14----------14-------------
B---------------15--12-----------------
G--------------------------------------
D--------------------------------------
A--------------------------------------
E--------------------------------------

e---12--15--14----------14-------------
B---------------15--12------14---------
G--------------------------------------
D--------------------------------------
A--------------------------------------
E--------------------------------------

guest
You may want to rate the tab now too:
select rating
Wanna post a correction for this tab? Suggest correction