Oops, an error
Loading. Please wait.

Falling Away From Me bass

version 3
version 3

Whole song

by Korn
15,907 views 12 this week
no commentswrite comment
1 2 3 4 5
x 8
add to favorites
×
Save as Personal and add changes to this tab that will be seen only by you. Learn more ›
×
You can save this tab as Personal to edit and correct it or add notes. All changes will be seen only by you. Learn more »
launch autoscroll
font size
0
reset
guitar tuner
backing track
0:00
0:00
edit
Autoscroll
slow
fast
+/-
esc
set tempo
stop
Author
Difficulty
intermediate
[Intro]
(0:19)
   S     E  E   S  E    S   E  Q+S  S          E  E   S  E    S    E   Q.
F|----|--------------------------------|   F|-----------------------------|
C|----|--------------------------------|   C|-----------------------------|
G|----|----------------(r|-------------|x7 G|----------------(r|----------|
D|----|--------------------------------|   D|-----------------------------|
A|-0--|--6--0---0--6--------6--0----0--|   A|--6--0---0--6---------6---0--|
   T     T  T   T  T        T  T    T          T  T   T  T         T   T

[Verse 1] 
(0:38)
    Hey,        I'm feeling...
    E  E   E.  S   E  E    E.   S     E  E    E.  S  E  E    Q
F|---------------------------------|----------------------------|
C|---------------------------------|----------------------------|
G|--------(r|-------------(r|------|---------(r|----------------| (x2)
D|---------------------------------|----------------------------|
A|--0--0-------0---0--0---------0--|--0--0--------0---1--0---3--|
    T  T       T   T  T         T     T  T        T   T  T   T
                                                             >

    E  E    E.  S   E  E    E.   S     E  E    E.   S   E   E   Q
F|----------------------------------|-------------------------------|
C|----------------------------------|--------------------------10---|
G|---------(r|-------------(r|------|---------(r|-------------------|
D|----------------------------------|-------------------------------|
A|--0--0--------0---0--0---------0--|--0--0---------0---1--0--------|
    T  T        T   T  T         T     T  T         T   T  T    P
                                                                >

    E  E    E.  S   E  E    E.   S     E  E    E.   S   E  E   E.    S
F|----------------------------------|------------------------------------|
C|----------------------------------|------------------------------------|
G|---------(r|-------------(r|------|---------(r|--------------(r|-------|
D|----------------------------------|------------------------------------|
A|--0--0--------0---0--0---------0--|--0--0---------0---1--0---------0---|
    T  T        T   T  T         T     T  T         T   T  T         T

    E  E   S  E    S   E  Q+S S
F|-------------------------------|
C|-------------------------------|
G|----------------(r|------------| (x3)
D|-------------------------------|
A|--6--0---0--6--------6--0---0--|
    T  T   T  T        T  T   T

    E  E   S  E    S   E  Q.
F|---------------------------|
C|---------------------------|
G|----------------(r|--------|
D|---------------------------|
A|--6--0---0--6--------6--0--|
    T  T   T  T        T  T

[Verse 2] 
(1:05)
    Today      is  here...
    E  E   E.  S   E  E    E.   S     E  E    E.  S  E  E    Q
F|---------------------------------|----------------------------|
C|---------------------------------|----------------------------|
G|--------(r|-------------(r|------|---------(r|----------------| (x2)
D|---------------------------------|----------------------------|
A|--0--0-------0---0--0---------0--|--0--0--------0---1--0---3--|
    T  T       T   T  T         T     T  T        T   T  T   T
                                                             >

    E  E    E.  S   E  E    E.   S     E  E    E.   S   E   E   Q
F|----------------------------------|-------------------------------|
C|----------------------------------|--------------------------10---|
G|---------(r|-------------(r|------|---------(r|-------------------|
D|----------------------------------|-------------------------------|
A|--0--0--------0---0--0---------0--|--0--0---------0---1--0--------|
    T  T        T   T  T         T     T  T         T   T  T    P
                                                                >

    E  E    E.  S   E  E    E.   S     E  E    E.   S   E  E    Q
F|----------------------------------|-----------------------------------|
C|----------------------------------|-----------------------------------|
G|---------(r|-------------(r|------|---------(r|--------------(r|------|
D|----------------------------------|-----------------------------------|
A|--0--0--------0---0--0---------0--|--0--0---------0---1--0------------|
    T  T        T   T  T         T     T  T         T   T  T

[Chorus] 
(1:24)
         Beating me   down...
    H    H            H.          S  E.    H    H       H.       S   E.
F|-----------------|--------------------|------------|------------------|
C|-----------------|--------------------|------------|------------------|
G|-----------------|--------------------|------------|------------------| (x2)
D|-------2---------|--------------------|-------2----|-----------1---1--|
A|--0--------------|--3-----------1--1--|--0---------|--3---------------|
    T    T            T           T  T     T    T       T        T   T

[Verse 3] 
(1:42)
         I'm fading away...
     E   E  Q     E    E  Q              E   E  Q     E     E  E  E
F|---------------------------|      F|-------------------------------|
C|---------------------------|      C|-------------------------------|
G|--(r|----------(r|---------| (x3) G|--(r|----------(r|-------------|
D|---------------------------|      D|-------------------------------|
A|-------0--0----------0--0--|      A|-------0--0-----------0--1--0--|
         T  T          T  T                  T  T           T  T  T

     E   E  Q     E    E  Q              E   E  Q     E     E  E  E
F|---------------------------|      F|-------------------------------|
C|---------------------------|      C|-------------------------------|
G|--(r|----------(r|---------| (x3) G|--(r|----------(r|-------------|
D|---------------------------|      D|-------------------------------|
A|-------0--0----------0--0--|      A|-------0--0-----------0--1--0--|
         T  T          T  T                  T  T           T  T  T

      E   E  Q     E    E  Q             E   E  Q     E     E  Q
F|---------------------------|      F|------------------------------|
C|---------------------------|      C|------------------------------|
G|--(r|----------(r|---------| (x3) G|--(r|----------(r|-------(r|--|
D|---------------------------|      D|------------------------------|
A|-------0--0----------0--0--|      A|-------0--0-----------0-------|
         T  T          T  T                  T  T           T  T  T

[Chorus] (2:10)
         Beating me   down...
    H    H            H.          S  E.    H    H       H.       S   E.
F|-----------------|--------------------|------------|------------------|
C|-----------------|--------------------|------------|------------------|
G|-----------------|--------------------|------------|------------------| (x2)
D|-------2---------|--------------------|-------2----|-----------1---1--|
A|--0--------------|--3-----------1--1--|--0---------|--3---------------|
    T    T            T           T  T     T    T       T        T   T

    W~~~~~~~~~~~~~~~~~~~~
F|-----|-----|-----|-----|
C|-----|-----|-----|-----|
G|-----|-----|-----|-----|
D|-----|-----|-----|-----|
A|--0--|--0--|--0--|--0--|
    T   (tie) (tie) (tie)

[Interlude]
(2:38)
     Q    E  Q. Q      E   H.+E~~~Q  E  Q. Q      Q.  H+E~~~Q  E  Q. Q
F|-----------------|-----------|--------------|----------|-----------------|
F|--------9-----9--|--------9--|--9--9-----9--|-------9--|--9--9-----9-----|
G|--(r|------9-----|--(r|------|--------9-----|--(r|-----|--------9--------|
D|-----------------|-----------|--------------|----------|-----------------|
A|-----------------|-----------|--------------|----------|-----------------|
                                (tie)                     (tie)

    E H.+E~~~Q   S  Q.+S Q     E  Q  H+E
F|--------|-----------------|-----------|
C|-----9--|--9-----------9--|--------9--|
G|--------|-----(r|---9-----|-----------|
D|--7-----|-----------------|--7--7-----|
A|--------|-----------------|-----------|
           (tie)

    H  H     H.  Q    H  H     H. Q     H  H     H. Q     W~~~~~H.  Q
F|--------|--------|--------|--------|--------|--------|-----|----------|
F|--------|--------|--------|--------|--------|--------|-----|----------|
F|--------|--------|--------|--------|--------|--------|-----|-----(r|--|
F|-----2--|--0-----|-----2--|--0--2--|-----2--|--0-----|-----|----------|
F|--0-----|-----1--|--0-----|--------|--0-----|-----1--|--0--|--0-------|
    T  T     T  T     T  T     T  T     T  T     T  T     T   (tie)

   S     E  E   S  E    S   E  Q+S  S            E  E   S  E   S   E  E  E  E
F|----|--------------------------------|     F|--------------------------------|
C|----|--------------------------------|     C|--------------------------------|
G|----|----------------(r|-------------|(x7) G|---------------(r|--------------|
D|----|--------------------------------|     D|--------------------------------|
A|-0--|--6--0---0--6--------6--0----0--|     A|--6--0---0--6-------6--0--0--0--|
   T     T  T   T  T        T  T    T            T  T   T  T       T  T  T  T

[Chorus] 
(3:33)
         Beating me   down...
    H    H            H.          S  E.    H    H       H.       S   E.
F|-----------------|--------------------|------------|------------------|
C|-----------------|--------------------|------------|------------------|
G|-----------------|--------------------|------------|------------------| (x2)
D|-------2---------|--------------------|-------2----|-----------1---1--|
A|--0--------------|--3-----------1--1--|--0---------|--3---------------|
    T    T            T           T  T     T    T       T        T   T

  I'm falling...
    H  H     H.  S  E.    H  H     H. S  E.    W~~~~~~~~~~~~~~~~~~~~~~~~~~~~~
F|--------|------------|--------|-----------|-----|-----|-----|-----|-----|-----|
C|--------|------------|--------|-----------|-----|-----|-----|-----|-----|-----|
G|--------|------------|--------|-----------|-----|-----|-----|-----|-----|-----|
D|-----2--|------------|-----2--|-----1--1--|-----|-----|-----|-----|-----|-----|
A|--0-----|--3---1--1--|--0-----|--3--------|--0--|--0--|--0--|--0--|--0--|--0--|
    T  T     T   T  T     T  T     T  T  T     T   (tie) (tie) (tie) (tie) tie



************************************

| x  Dead note
| >  Accented note
| P  Pop
| ~  Vibrato

************************************

            
            
Suggest correction
Creating personal tab
Creating personal tab
You can edit any tab online and save it as your Personal.

You can edit, replace or remove any tab part or add personal notes – all changes will be seen only by you.

Personal tabs can be accessed anytime from any device, even offline.
Learn more »
comments
print report bad tab
guest
You may want to rate the tab now too:
select rating
Wanna post a correction for this tab? Suggest correction