Oops, an error
Loading. Please wait.

Follow The Leader Bass Tab

by Korn
7,638 views 6 this week
1 commentread comment
1 2 3 4 5
excellent!
x 4
add to favorites
launch autoscroll
font size
0
reset
guitar tuner
Tab Pro tools
  • play this tab
  • loop segment
  • change instrument
  • show fretboard
  • metronome
×
Best way to learn
"Follow The Leader"
Autoscroll
slow
fast
+/-
esc
set tempo
stop
Contributor
Band- Korn
Album- Follow The Leader

1.It's On
2.Freak On A Leash
3.Got The Life
4.Dead Bodies Everywhere
5.Children Of The Korn
6.B.B.K.
7.Pretty
8.All In The Family
9.Reclaim My Place
10.Justin
11.Seed
12.Cameltosis
13.My Gift To You

1.IT'S ON

Intro (Slap Distortion)
F|--------------|
C|--------------|
G|--------------|
D|---9\7---5----|
A|-0-----0---00-|
                  Repeat this 3 times
F|------------------|
C|------------------|
G|------------------|
D|---9\7---5--------|
A|-0-----0---00-3\1-|

Last time
F|--------------|
C|--------------|
G|--------------|
D|---9\7---5----|
A|-0-----0---00-|

F|------------------|
C|------------------|
G|------------------|
D|---9\7---5--------|
A|-0-----0---00-2-3-|

Intro II (Slap Distortion)
F|----------------------------|
C|----------------------------|
G|----------------------------|x3
D|---9\7---5------9\7---------|
A|-0-----0---0--0-----0-0-3\1-|

F|--------------------------|
C|--------------------------|
G|--------------------------|x1
D|---9\7---5------9\7-------|
A|-0-----0---0--0-----0-2-3-|

Verse (Fat distortion with Phase effect)
F|-----------------|
C|-----------------|
G|-----------------|x7
D|---9\8\7---9\8\7-|
A|-0-------0-------|

F|---------------------|
C|---------------------|
G|---------------------|
D|---9\8\7---9\8\7-----|
A|-0-------0-------8-7-|

F|-----------------|
C|-----------------|
G|-----------------|x4
D|---9\8\7---9\8\7-|
A|-0-------0-------|

Come on!
F|-----|
C|-----|
G|-----|
D|-----|
A|-2-3-|

Pre - Chorus: Same as Intro II

Chorus (Fat Distortion)
F|----------------------------|
C|-1-0----------0-1-----------|
G|-----0~----------0~---------|x2
D|----------------------------|
A|---------2-0~----------2-0~-|

Sratching Bridge ("This time, thiiiiiiiissss tiiiiiiiiiiiime")
Here fieldy scratch the "A" string using: resonant wah, Drive distrotion, Crystal Chorus and Delay.
Believe me, I thought this was played by a guitar but watch It's On live at Sydney '99 and you'll see
that he play this.

Bridge II (Fat Distortion)
F|--------------------------|
C|--------------------------|
G|--------------------------|x7
D|---1\0---1/3----1\0---1\4-|
A|-0-----0------0-----0-----|

F|--------------|
C|--------------|
G|--------------|x1
D|---1\0---1/10-|
A|-0-----0------|

Come on!
F|-----|
C|-----|
G|-----|
D|-----|
A|-2-3-|

Outro: Same as Intro II

2.FREAK ON A LEASH

  s       E  E  h  e     E  E  h  e     E  E  h  e     E  E  e
F-------r--||---------------|--------------|--------------|-------------|
C---4:--e--||---------------|--------------|--------------|-------------|
G---4:--s--||*--------7-----|--------8-----|--------7-----|-------------|
D-------t--||*-----6-----6--|-----7-----7--|-----6-----6--|-----7-------|
A----------||---5-----------|--6-----------|--5-----------|--6-----6----|


             w     H  q     w     E  E  e          s  e  s  e  q e
F--------||--r--|-----r--|--r--|----------------|-----------------------|
C--------||--e--|-----e--|--e--|----------------|-----------------------|
G-------*||--s--|-----s--|--s--|--------8--(8)--|--7-----7-----7/8------|
D-------*||--t--|-----t--|--t--|-----7----------|-----6-----6-----------|
A---(6)\-||-----|--12\---|-----|--6-------------|-----------------------|


    q     Q  q  Q     s  e  s     e  q e  q     E  E  e           s
F------|-----------|-------------------------|----------------||--------|
C------|-----------|-------------------------|----------------||--------|
G------|--------8--|--7-----7--------7/8-----|--------8--(8)--||--7-----|
D---7--|-----7-----|-----6--------6-------7--|-----7----------||--------|
A------|--6--------|-------------------------|--6-------------||--------|


    e  s  e  q e  q     Q  q  Q     s  e  s  e  q e  q     E  E  e
F--------------------|-----------|----------------------|---------------|
C--------------------|-----------|----------------------|---------------|
G------7-----7/8-----|--------8--|--7-----7-----7/8-----|--------8------|
D---6-----6-------7--|-----7-----|-----6-----6-------7--|-----7---------|
A--------------------|--6--------|----------------------|--6------------|


            s  e  s  e  q e  q     Q  q  Q     s  e  s  e  q e  q
F--------|----------------------|-----------|-------------------r--|----|
C--------|----------------------|-----------|-------------------e--|----|
G---(8)--|--7-----7-----7/8-----|--------8--|--7-----7----------s--|----|
D--------|-----6-----6-------7--|-----7-----|-----6-----6-------t--|----|
A--------|----------------------|--6--------|--------------5/6-----|----|


    E  E  e           w     Q  q  Q     E  s  s s  Q  q    Q  q  Q
F-----------------||-----|-----------|------------------|---------------|
C-----------------||-----|-----------|------------------|---------------|
G---------8--(8)--||-----|-----------|--------5/7--7--7\|---------------|
D------7----------||-----|--------1--|-----7------------|--------1------|
A---6-------------||--5--|--3--1-----|--5---------------|--3--1---------|


       E  s  e  e          Q  q  Q     q  e  e                   q
F---|-------------------|-----------|----------------|------------------|
C---|-------------------|-----------|----------------|------------------|
G---|-------------------|-----------|--------7--(7)--|--(7)--(7)/14-----|
D---|-------------------|--------1--|----------------|------------------|
A---|--5--5--5--5--(5)--|--3--1-----|--5--5----------|------------------|


               Chorus (Slapped)          e  e  e  e  s  s  e  s
F----------||-----------------------||---------r-----r------------------|
C----------||-----------------------||---------e-----e------------------|
G---(14)^--||-----------------------||*--------s-----s------------------|
D----------||-----------------------||*--------t-----t-----------x------|
A----------||-----------------------||---0--0-----0-----0--0--0---------|


             e  e  e  e  s  s  e  q   4x
F---------|--------r-----r------------||--------------------------------|
C---------|--------e-----e------------||--------------------------------|
G---x-----|--------s-----s-----------*||--------------------------------|
D------x--|--2--2--t--3--t--1--1-----*||--------------------------------|
A---------|-----------------------1---||--------------------------------|


    Slight slowdown (not-Slapped)          e  e   e   e   e  e  e  e
F-----------------------------------------------------------------------|
C-----------------------------------------------------------------------|
G-----------------------------------------------------------------------|
D-----------------------------------------------------------------------|
A------------------------------------------0--12--11--10--9--8--7--6----|


             Regular speed     E  E  H  e     E  E  h  e     E  E  h
F---||--||---------------------------------|--------------|-------------|
C---||--||---------------------------------|--------------|-------------|
G---||--||*--------------------------7-----|--------------|--------7----|
D---||--||*-----------------------6-----6--|-----7--------|-----6-------|
A---||--||---------------------5-----------|--6-----6--6--|--5----------|


    e     E  E  e            w     Q  q  Q     E  s  s s  Q  q    Q
F------|-----------------||-----|-----------|------------------|--------|
C------|-----------------||-----|-----------|------------------|--------|
G------|----------------*||-----|-----------|--------5/7--7--7\|--------|
D---7--|-----7----------*||-----|--------1--|-----7------------|--------|
A------|--6-----6--(6)---||--5--|--3--1-----|--5---------------|--3-----|


    q  Q     E  s  e  e          Q  q  Q     q  e  e
F---------|-------------------|-----------|----------------|------------|
C---------|-------------------|-----------|----------------|------------|
G---------|-------------------|-----------|--------7--(7)--|--(7)-------|
D------1--|-------------------|--------1--|----------------|------------|
A---1-----|--5--5--5--5--(5)--|--3--1-----|--5--5----------|------------|


        q                   Chorus (Slapped)     e  e  e  e  s  s  e
F------------------||--||------------------------------r-----r----------|
C------------------||--||------------------------------e-----e----------|
G---(7)/14--(14)^--||--||*-----------------------------s-----s----------|
D------------------||--||*-----------------------------t-----t----------|
A------------------||--||------------------------0--0-----0-----0--0----|


    s              e  e  e  e  s  s  e  q   4x  w       w     w
F---------------|--------r-----r------------||--r--||------|--r---||----|
C---------------|--------e-----e------------||--e--||------|--e---||----|
G---------x-----|--------s-----s-----------*||--s--||*-----|--s--*||----|
D------x-----x--|--2--2--t--3--t--1--1-----*||--t--||*-----|--t--*||----|
A---0-----------|-----------------------1---||-----||---2--|------||----|


    (Slapped)  (with addlibs)    e  s  s  s  s  s  s  s  s  s  s  s
F---||------------------------------------r--------------------r--------|
C---||------------------------------------e--------------------e--------|
G---||*-----------------------------------s--------------------s--------|
D---||*-----------------------------------t--------------------t--------|
A---||---------------------------2--2--2-----2--2--2--2--2--2-----2-----|


    s  E   7x  s  s  s  s  s  s  s  s  s  s  e  q       Q  q  q  e
F----------||--------------------------------------||-------------------|
C----------||--------------------------------------||-------------------|
G---------*||--------------------------------------||*------------------|
D------4--*||--------------------------------------||*------------------|
A---2------||--2--2--2--2--2--2--2--2--2--2--2--2--||---2--3--4--5------|


       Q  q  q  e     Q  q  q  e     Q  q  q  e   4x       (Slapped)
F---|--------------|--------------|---------------||--||----------------|
C---|--------------|--------------|---------------||--||----------------|
G---|--------------|--------------|--------------*||--||*---------------|
D---|--------------|--------------|--------------*||--||*---------------|
A---|--2--3--4--5--|--2--3--4--5--|--2--3--2--1---||--||----------------|


       e  e  e  e  s  s  e  s              e  e  e  E  s  e  q   7x
F------------r-----r--------------------|--------r---------------||-----|
C------------e-----e--------------------|--------e---------------||-----|
G------------s-----s--------------x-----|--------s--------------*||-----|
D------------t-----t-----------x-----x--|--2--2--t--3--1--1-----*||-----|
A------0--0-----0-----0--0--0-----------|--------------------1---||-----|


    e  e  e  e  s  s  e  s              e  e  e  E  s  e  q
F---------r-----r--------------------|--------r--------------|----------|
C---------e-----e--------------------|--------e--------------|----------|
G---------s-----s--------------x-----|--------s--------------|----------|
D---------t-----t-----------x-----x--|--2--2--t--3--1--1--1--|--(1)-----|
A---0--0-----0-----0--0--0-----------|-----------------------|----------|

F---|-------||----------------------------------------------------------|
C---|-------||----------------------------------------------------------|
G---|-------||----------------------------------------------------------|
D---|--(1)--||----------------------------------------------------------|
A---|-------||----------------------------------------------------------|

3.GOT THE LIFE

Tuning: A,D,G,C,F (low to high)

Intro/Corus:
F:------x------x-------x------x-----------|
C:------x-x--x-x-------x-x--x-x-----------|
G:------x-x--x-x-------x-x--x-x-----------|
D:------x-x--x-x-------x-x--x-x--5--------|
A:-0-0--x-x--x-x--0-0--x-x--x-x-----6--4--|
   s s  s s  s s  s s  s s  s s  p  p  p

Verse:
F:-----------------------------------------|
C:-----------------------------------------|
G:-------x-x-------x-x-----------x-x-------|
D:-------x-x-------x-x-----------x-x-------|
A:-1/2-2-x-x-1h2-2-x-x-1/2-2h3-3-x-x-1h2-2-|
   s s s s s s s s s s s s s s s s s s s s

Interlude:
F:---------------------|
C:---------------------|
G:---------------------|
D:--7~---5~------------|
A:-----------6~---4~/--|
    p    p   p    p

4.DEAD BODIES EVERYWHERE

Tunning; A,D,G,C,F

Intro
F|---------------------|
C|---------------------|
G|---------------------|
D|---------------------|
A|-3/4\3-0-3/4\3-0-1-0-|

Pre - verse
F|------------|
C|------------|
G|------------|
D|------------|
A|-00XXX00XX0-|

Verse: Same as Pre - verse

Chorus: Same as Intro

Bridge (With wah pedal) when you play notes inside (), push your wah pedal up
F|-------------------------------------------------------------------|
C|-------------------------------------------------------------------|
G|-------------------------------------------------------------------|x1
D|----(14)----(15)----(14)----(15)-------(14)----(15)---(14)----(15)-|
A|-12------13------12------13------0--12------13-----12------13------|

F|---------------------------------------------------------------------------|
C|---------------------------------------------------------------------------|
G|---------------------------------------------------------------------------|x3
D|------------(14)----(15)----(14)----(15)-------(14)----(15)---(14)----(15)-|
A|15-14-13-12------13------12------13------0--12------13-----12------13------|

F|---------------------|
C|---------------------|
G|---------------------|
D|---------------------|
A|-15-14-13-12~~~~~~~\-|

Heavy Bridge
F|---------------|
C|---------------|
G|---------------|
D|---------------|
A|-0-0-22-0-0-33-|

Last Chorus: Same as Heavy Bridge

Outro I (Dead bodies everywhere!!!Dead bodies everywhere!!!)
F|---------------|
C|---------------|
G|---------------|
D|---------------|
A|-2-2-00-3-3-00-|

Outro II: Same as the bridge

5.CHILDREN OF THE KORN

Tunning: A,D,G,C,F

Verse (With resonant wah and some drive distortion)
F|--------------------|
C|--------------------|
G|--------------------|
D|---0--3--5--7/8\7/8-|
A|-0------------------|

Pre - Chorus (Fat Distortion)
F|---------------|
C|---------------|
G|---------------|Listen song for timing
D|---------------|
A|-0-0-0-00000-0-|

Chorus (Fat distortion)
F|-----------------|
C|-----------------|
G|-----------------|
D|-----------------|
A|-3-3-333-2-2-222-|

Bridge (the children of the korn,the children of the korn)
F|-------|
C|-------|
G|-------|x4
D|-3-----|
A|---55\-|

I can see and feel the parents hating me!!!
F|-----------------|
C|-----------------|
G|-----------------|
D|-----------------|
A|-3-3-333-2-2-222-|

Last note
F|--------|
C|-0~~~~~-|
G|--------|x1
D|--------|
A|--------|

6.B.B.K.

Tunning: A,D,G,C,F

NOTE: Notes inside the () are played with a FUZZ distrotion

Intro
F|-----|
C|-----|
G|-----|x1
D|-(6)-|
A|-----|

F|-----------------|
C|-----------------|
G|-----------------|X4
D|-----------------|
A|-XXXX0-XXXX0-XX0-|

F|-----------------|
C|-----------------|
G|-----------------|x1
D|-(6)-------------|
A|-----X-XXXX0-XX0-|

F|-----------------|
C|-----------------|
G|-----------------|X2
D|-----------------|
A|-XXXX0-XXXX0-XX0-|


F|-----------------|
C|-----------------|
G|-----------------|X1
D|-------------(6)-|
A|-XXXX0-XXXX0-----|

Verse I
F|-----------------|
C|-----------------|
G|-----------------|
D|-------------(6)-|
A|-XXXXXXXXXXX-----|

Post - Verse
F|-----------------|
C|-----------------|
G|-----------------|X3
D|-----------------|
A|-XXXX0-XXXX0-XX0-|

F|-----------------|
C|-----------------|
G|-----------------|X1
D|-------------(6)-|
A|-XXXX0-XXXX0-----|

Verse II: Same as verse I

Chorus
F|-------------|
C|-------------|
G|-------------|x7
D|-------------|
A|-0-0060-0067-|

F|-------------|
C|-------------|
G|-------------|x1
D|-------------|
A|-0-0060-0060-|

Verse III
F|-------------------------|
C|------------9/10---------|
G|-------------------------|
D|-(6)---7-6-------7\6-----|
A|-----0-----0----------7\-|

Bridge ( after "taken, away")
F|-------------|
C|-------------|
G|-------------|x8
D|-------------|
A|-0-0060-0060-|

F|-----------------|
C|-----------------|
G|-----------------|x1
D|-(6)-(6)-(6)-(6)-|
A|-----------------|

F|---------------------|
C|---------------------|
G|---------------------|X1
D|-(6)-----------------|
A|-----XXXX0-XXXX0-XX0-|

F|-----------------|
C|-----------------|
G|-----------------|X3
D|-----------------|
A|-XXXX0-XXXX0-XX0-|

F|-----------------|
C|-----------------|
G|-----------------|x1
D|-(6)-------------|
A|-----X-XXXX0-XX0-|

F|-----------------|
C|-----------------|
G|-----------------|X3
D|-----------------|
A|-XXXX0-XXXX0-XX0-|

Last Chorus (Play this riff with FUZZ distortion)
F|---------|
C|---------|
G|---------|x8
D|---7-6-0-|
A|-0-------|

Outro
F|-------------|
C|-------------|
G|-------------|x1
D|-(6)-(6)-(6)-|
A|-------------|

7.PRETTY

Notes inside the () are played with a FUZZ distortion

Intro (Fat distortion)
F|-----------------|
C|-----------------|
G|-----------------|x3
D|-8\777\6---------|
A|---------5\444\3-|

F|------------------|
C|------------------|
G|------------------|x1
D|-8\777\6-----6/12-|
A|---------5\4------|

F|-----------------|
C|-----------------|
G|-----------------|x4
D|-8\777\6---------|
A|---------5\444\3-|

Verse (With flanger and delay effects)
F|---------------------------------------------------------|
C|---------10------------------------10--------------------|
G|------10----10--------9/12------10----10-------9/12------|
D|-00-9----------9\7-0-------00-9----------9\7-0------12\9-|
A|---------------------------------------------------------|

Chorus I (Fat distortion)
F|-----------------------|
C|-----------------------|
G|-0---------------------|x3
D|----7------------------|
A|--------10-9-8-7-6-5-4-|

F|-------------------|
C|-------------------|
G|-0-----------------|x1
D|----7--------------|
A|--------10-9-8-7-6-|

Pre - Verse (With flanger and delay effects)
F|-------------------------------------------------12-----------|
C|---------10--------------10-------------10----11----11\--13\--|
G|------10----10\-------10----10-------10----10-----------------|
D|-00-9------------00-9-----------00-9--------------------------|
A|--------------------------------------------------------------|

Chorus II
F|-----------------------|
C|-----------------------|
G|-0---------------------|x7
D|----7------------------|
A|--------10-9-8-7-6-5-4-|

F|---------------------------|
C|---------------------------|
G|-0-------------------------|x1
D|----7----------------------|
A|--------10-9-8-7-6-5-4-(0)-|

Bridge
F|-------------------------------------------|
C|-------------------------------------------|
G|-------------------------------------------|
D|-------------------------------------------|
A|-(0)-------(0)-(0)-(0)-(0)-(0)-(0)-(0)-(0)-|

Heavy Bridge
F|-----------------------------|
C|-----------------------------|
G|-----------------|x3 --------|
D|-8\777\6---------|        ---|
A|---------5\444\3-|        ---|
                             |-> twice
F|------------------|       ---|
C|------------------|       ---|
G|------------------|x1 -------|
D|-8\777\6-----6/12------------|
A|---------5\4-----------------|

Outro: Play chorus until fade out

8.ALL IN THE FAMILY

tuning (A D G C F)          tabbed by the rat


F-----------------------------------------------------------------------|
C---------------------XXX---------------------------------XXX-----------|
G-----------------------------------------------------------------------|
D--------------X--------------------------------------X-----------------|
A----2----X-------------------1---1-------2----X-----------------1---1--|  Repeat through refrain

When Durst is talkin
F----------------------------------------------------------------------|
C----------------------------------------------------------------------|
G----3---3---4h5---4---3-------3---3---3---4h5---4---3-----------------|
D----------------------------------------------------------------------|
A----------------------------------------------------------------------|

Play when Davis is talkin
F------------------------------------------------------|
C------------------------------------------------------|
G------------------------------------------------------|
C------------------------------------------------------|
A----1-1-1-1-1-1-2-2-1-1-1-1-1-1-2-2-------------------|

9.RECLAIM MY PLACE

E-----x-x-----x-x-----x-x-|
G-----x-x-----x-x-----x-x-|
G-----x-x-----x-x-----x-x-|
D-----x-x-----x-x-----x-x-|
A-1-0-----0-0-----0-0-----|


E----x-x----x-x-----|
B----x-x--x-x-x-----|
G----x-x--x-x-x-----|
D-1--x-x-x--x-x-1---|
A-----------------1-|

E------------------------------|
B------------------------------|
G------------------------------|
D------------------------------|
A-12-13-14-13-12---12-14-13-12-|

E-----------x-x-----x-x---|
B---------x-x-x---x-x-x---|
G---------x-x-x---x-x-x---|
D-------1---x-x-1---x-x-1-|
A-0-1-2-------------------|

10.JUSTIN

Tunning: A,D,G,C,F

Intro
F|-------------------------------------4/5---------------------4/5-----|
C|-------6--------6--------6-------5/6-----0-------6-------5/6-----5\4-|
G|-5-5-4----5-5-4----5-5-4---5-5-4-----------5-5-4---5-5-4-------------|
D|---------------------------------------------------------------------|
A|---------------------------------------------------------------------|

F|-----------------|
C|-------6-------6-|
G|-5-5-4---5-5-4---|
D|-----------------|
A|-----------------|

Heavy Intro
F|-----------------------------|
C|-----------------------------|
G|-----------------------------|
D|-----------------------------|
A|-00-0-00-0-0-0000-0-000-0606-|

Verse I
F|-------------------------------------4/5-----------------------------------|
C|-------6--------6--------6-------5/6-----0-------6-------6-------6---------|
G|-5-5-4----5-5-4----5-5-4---5-5-4-----------5-5-4---5-5-4---5-5-4---5-5-4---|
D|-------------------------------------------------------------------------0-|
A|---------------------------------------------------------------------------|

Chorus: Same as Heavy Intro

Verse II
Part A
F|-------------|
C|-------------| /sCRATCH
G|-------------| During the first 4 measures theres no bass
D|-------------| fieldy scratch the A string a couple of times
A|-/\/--///\/\-|

Part B
F|------------------------------------|
C|------------------------------------|
G|------------------------------------|
D|--------5-------5/6-------5-------5-|
A|--5-5-4---5-5-4-----5-5-4---5-5-4---|

Bridge
F|-------------------------------------------|
C|-------------------------------------------|
G|-----9-8--8/9\8/9-----9-8--8/9\8/9\8/9\8/9-|x4
D|-77-----------------7----------------------|
A|-------------------------------------------|

Then play The chorus riff 2 times

Bridge II
F|------------|
C|------------|
G|------------|
D|------------|
A|-000--0003~-|

Outro
F|-------------------------------------4/5-----|
C|-------6--------6/7------6-------5/6-----5\4-|
G|-5-5-4----5-5-4----5-5-4---5-5-4-------------|
D|---------------------------------------------|
A|---------------------------------------------|

F|------------------------------------4/5---|
C|--------------------------6------5/6----0-|
G|--------------------5-5-4---5-5-4---------|
D|-------5-------3/5------------------------|
A|-5-5-4---5-5-4----------------------------|

F|------------------|
C|----------------6-|
G|----------5-5-4---|
D|-------5----------|
A|-5-5-4------------|

11.SEED

   Intro (Addlib occasionaly)
F---||---------------12--------------------10--------------12-----------|
C---||-----------10-----------------10-----------------10---------10----|
G---||*--9h10p9----------0--9h10p9------9------9h10p9----------0--------|
D---||*-----------------------------------------------------------------|
A---||------------------------------------------------------------------|


                      5x     Pre-Verse (Slapped)
F----------------10---||------------------------------||----------------|
C---9-----------------||------------------------------||----------------|
G------10--9---------*||------------------------------||*---------------|
D-------------9------*||------------------------------||*---------------|
A---------------------||-----0--4h5--5--0--0--1h2--2--||---0--0--4------|


                          7x
F-------------------------||-----||-------------------------------------|
C-------------------------||-----||-------------------------------------|
G------------------------*||-----||*------------------------------------|
D------------------------*||-----||*------------------------------------|
A---h5--5--0--0--1h2--2---||-----||-------------------------------------|


    play 7 on the weird noise,always hold 0 4x
F-------------------------------------------||--------------------------|
C-------------------------------------------||--------------------------|
G------------------------------------------*||--------------------------|
D------------------------------------7-----*||--------------------------|
A---0--(0)--(0)--(0)--(0)--(0)--(0)---------||--------------------------|


    addlib every 6th tim21x
F-----------------------||-----||---------------------------------------|
C-----------------------||-----||---------------------------------------|
G----------------------*||-----||*--------------------------------------|
D--------------5h6-----*||-----||*--------------------------------------|
A---0--0--5h6-----------||-----||---0--(0)--(0)--(0)--(0)--(0)--(0)-----|


        2x       addlib 6th time  9x  Chorus (Slapped)
F-------||--||--------------------||---------------------------||-------|
C-------||--||--------------------||---------------------------||-------|
G------*||--||*------------------*||---------------------------||*------|
D---7--*||--||*-------------5h6--*||---------------------------||*------|
A-------||--||---0--0--5h6--------||--0--4h5--5--0--0--1h2--2--||-------|


                                 7x
F--------------------------------||--||---------------------------------|
C--------------------------------||--||---------------------------------|
G-------------------------------*||--||*--------------------------------|
D-------------------------------*||--||*--------------------------------|
A---0--0--4h5--5--0--0--1h2--2---||--||---------------------------------|


    same riff as intro (use addlibs)           5x
F----------------------------------------------||--||-------------------|
C----------------------------------------------||--||-------------------|
G---------------------------------------------*||--||*------------------|
D---------------------------------------------*||--||*------------------|
A----------------------------------------------||--||---0--3--4--5------|


     8x       repeat intro (Still addlib)          5x
F----||--||----------------------------------------||--||---------------|
C----||--||----------------------------------------||--||---------------|
G---*||--||*--------------------------------------*||--||*--------------|
D---*||--||*--------------------------------------*||--||*--------------|
A----||--||----------------------------------------||--||---0--3--4-----|


        8x       (slap) Chorus             16x
F-------||--||-----------------------------||--||-----------------------|
C-------||--||-----------------------------||--||-----------------------|
G------*||--||*---------------------------*||--||*----------------------|
D------*||--||*---------------------------*||--||*----------------------|
A---5---||--||---0--4h5--5--0--0--1h2--2---||--||-----------------------|


    fade out after 6 times 6x
F--------------------------||-------------------------------------------|
C--------------------------||-------------------------------------------|
G-------------------------*||-------------------------------------------|
D--------------5h6--------*||-------------------------------------------|
A---0--0--5h6--------------||-------------------------------------------|

12.CAMELTOSIS

Tunning: A,D,G,C,F

Intro
F|-------------|
C|-------------|
G|-------------|
D|-------------|
A|-9\5-----5/9-|

Verse
F|------(5)-|
C|----------|
G|----------|Play the (5) with slap style
D|----------|
A|-7-7\-----|

Pre - Chorus ("So baby I ask you")
F|-------------|
C|-------------|
G|-------------|
D|-------------|
A|-5/9-----9\5-|

Chorus
F|-----|
C|-----|
G|-----|^Bend *Before the bend, let ring the string just a bit
D|-----|       and then you bend
A|-77^-|

Verse II
F|---------|
C|---------|
G|---------|
D|-----7/9-|
A|-7-7-----|

13.MY GIFT TO YOU

Intro-
G|--------------------------------------------------------|
D|--------------------------------------------------------|
A|--------------------------------------------------------|
D|---0_____----------------------------1-1-1--0-----------|
A|--------------------------------------------------------|

Verse-

G|-------------------------------------------------------|
D|-------------------------------------------------------|
A|-------------------------------------------------------|
D|-------------------------------------------------------|
A|---222---22-2------2222---222---22-2------2221---------|

Chorus-

G|---------------------------------------------------|
D|---------------------------------------------------|
A|---------------------------------------------------|
D|--0-------1-------1--0--------1------1--0----------|
A|----------------2-------------------2--------------|

Heavy Part-
G|----------------------------------------------------------------|
D|----------------------------------------------------------------|
A|----------------------------------------------------------------|
D|--00--000--01-1--1----1-1---00--000--01-1---1------1-1---00-----|
A|------------------------2-2-------------------------------2-2---|

Bass is a little different once-
G|------------------------------------------------|
D|------------------------------------------------|
A|------------------------------------------------|
D|------------------------------------------------|
A|--000--0-00----0001----222--2-22----2-222-------|
comments
print report bad tab
1 comment total.
0 reply
virtussilex wrote on August 31 2007, 04:06 am

sounds pretty good to me.. good job

I want to post or [tab]
guest
You may want to rate the tab now too:
select rating
Please do not post tabs as comments. Select "correction" instead!