Oops, an error
Loading. Please wait.
We have an official Freak On A Leash tab made by UG professional guitarists. Check out the tab »
×
by Korn
59,751 views 45 this week
8 commentsread comments
1 2 3 4 5
x 19
add to favorites
×
Save as Personal and add changes to this tab that will be seen only by you. Learn more ›
×
You can save this tab as Personal to edit and correct it or add notes. All changes will be seen only by you. Learn more »
save as personal
new!
launch autoscroll
font size
0
reset
guitar tuner
backing track
0:00
0:00
Autoscroll
slow
fast
+/-
esc
set tempo
stop
Author
Unregistered
         s       E  E  h  e     E  E  h  e     E  E  h  e     E  E  e
F|-------r--|---------------|--------------|--------------|-------------|
C|---4:--e--|---------------|--------------|--------------|-------------|
G|---4:--s--|*--------7-----|--------8-----|--------7-----|-------------|
D|-------t--|*-----6-----6--|-----7-----7--|-----6-----6--|-----7-------|
A|----------|---5-----------|--6-----------|--5-----------|--6-----6----|

             w     H  q     w     E  E  e          s  e  s  e  q e
F|--------|--r--|-----r--|--r--|----------------|-----------------------|
C|--------|--e--|-----e--|--e--|----------------|-----------------------|
G|-------*|--s--|-----s--|--s--|--------8--(8)--|--7-----7-----7/8------|
D|-------*|--t--|-----t--|--t--|-----7----------|-----6-----6-----------|
A|---(6)\-|-----|--12\---|-----|--6-------------|-----------------------|

    q     Q  q  Q     s  e  s     e  q e  q     E  E  e           s
F|------|-----------|-------------------------|----------------|--------|
C|------|-----------|-------------------------|----------------|--------|
G|------|--------8--|--7-----7--------7/8-----|--------8--(8)--|--7-----|
D|---7--|-----7-----|-----6--------6-------7--|-----7----------|--------|
A|------|--6--------|-------------------------|--6-------------|--------|

    e  s  e  q e  q     Q  q  Q     s  e  s  e  q e  q     E  E  e
F|--------------------|-----------|----------------------|---------------|
C|--------------------|-----------|----------------------|---------------|
G|------7-----7/8-----|--------8--|--7-----7-----7/8-----|--------8------|
D|---6-----6-------7--|-----7-----|-----6-----6-------7--|-----7---------|
A|--------------------|--6--------|----------------------|--6------------|

            s  e  s  e  q e  q     Q  q  Q     s  e  s  e  q e  q
F|--------|----------------------|-----------|-------------------r--|----|
C|--------|----------------------|-----------|-------------------e--|----|
G|---(8)--|--7-----7-----7/8-----|--------8--|--7-----7----------s--|----|
D|--------|-----6-----6-------7--|-----7-----|-----6-----6-------t--|----|
A|--------|----------------------|--6--------|--------------5/6-----|----|

    E  E  e           w     Q  q  Q     E  s  s s  Q  q    Q  q  Q
F|-----------------|-----|-----------|------------------|---------------|
C|-----------------|-----|-----------|------------------|---------------|
G|---------8--(8)--|-----|-----------|--------5/7--7--7\|---------------|
D|------7----------|-----|--------1--|-----7------------|--------1------|
A|---6-------------|--5--|--3--1-----|--5---------------|--3--1---------|

       E  s  e  e          Q  q  Q     q  e  e                   q
F|---|-------------------|-----------|----------------|------------------|
C|---|-------------------|-----------|----------------|------------------|
G|---|-------------------|-----------|--------7--(7)--|--(7)--(7)/14-----|
D|---|-------------------|--------1--|----------------|------------------|
A|---|--5--5--5--5--(5)--|--3--1-----|--5--5----------|------------------|

               Chorus (Slapped)          e  e  e  e  s  s  e  s
F|----------|-----------------------|---------r-----r------------------|
C|----------|-----------------------|---------e-----e------------------|
G|---(14)^--|-----------------------|*--------s-----s------------------|
D|----------|-----------------------|*--------t-----t-----------x------|
A|----------|-----------------------|---0--0-----0-----0--0--0---------|

             e  e  e  e  s  s  e  q   4x
F|---------|--------r-----r------------|--------------------------------|
C|---------|--------e-----e------------|--------------------------------|
G|---x-----|--------s-----s-----------*|--------------------------------|
D|------x--|--2--2--t--3--t--1--1-----*|--------------------------------|
A|---------|-----------------------1---|--------------------------------|

    Slight slowdown (not-Slapped)          e  e   e   e   e  e  e  e
F|-----------------------------------------------------------------------|
C|-----------------------------------------------------------------------|
G|-----------------------------------------------------------------------|
D|-----------------------------------------------------------------------|
A|------------------------------------------0--12--11--10--9--8--7--6----|

             Regular speed     E  E  H  e     E  E  h  e     E  E  h
F|---|--|---------------------------------|--------------|-------------|
C|---|--|---------------------------------|--------------|-------------|
G|---|--|*--------------------------7-----|--------------|--------7----|
D|---|--|*-----------------------6-----6--|-----7--------|-----6-------|
A|---|--|---------------------5-----------|--6-----6--6--|--5----------|

    e     E  E  e            w     Q  q  Q     E  s  s s  Q  q    Q
F|------|-----------------|-----|-----------|------------------|--------|
C|------|-----------------|-----|-----------|------------------|--------|
G|------|----------------*|-----|-----------|--------5/7--7--7\|--------|
D|---7--|-----7----------*|-----|--------1--|-----7------------|--------|
A|------|--6-----6--(6)---|--5--|--3--1-----|--5---------------|--3-----|

    q  Q     E  s  e  e          Q  q  Q     q  e  e
F|---------|-------------------|-----------|----------------|------------|
C|---------|-------------------|-----------|----------------|------------|
G|---------|-------------------|-----------|--------7--(7)--|--(7)-------|
D|------1--|-------------------|--------1--|----------------|------------|
A|---1-----|--5--5--5--5--(5)--|--3--1-----|--5--5----------|------------|

        q                   Chorus (Slapped)     e  e  e  e  s  s  e
F|------------------|--|------------------------------r-----r----------|
C|------------------|--|------------------------------e-----e----------|
G|---(7)/14--(14)^--|--|*-----------------------------s-----s----------|
D|------------------|--|*-----------------------------t-----t----------|
A|------------------|--|------------------------0--0-----0-----0--0----|

    s              e  e  e  e  s  s  e  q   4x  w       w     w
F|---------------|--------r-----r------------|--r--|------|--r---|----|
C|---------------|--------e-----e------------|--e--|------|--e---|----|
G|---------x-----|--------s-----s-----------*|--s--|*-----|--s--*|----|
D|------x-----x--|--2--2--t--3--t--1--1-----*|--t--|*-----|--t--*|----|
A|---0-----------|-----------------------1---|-----|---2--|------|----|

    (Slapped)  (with addlibs)    e  s  s  s  s  s  s  s  s  s  s  s
F|---|------------------------------------r--------------------r--------|
C|---|------------------------------------e--------------------e--------|
G|---|*-----------------------------------s--------------------s--------|
D|---|*-----------------------------------t--------------------t--------|
A|---|---------------------------2--2--2-----2--2--2--2--2--2-----2-----|

    s  E   7x  s  s  s  s  s  s  s  s  s  s  e  q       Q  q  q  e
F|----------|--------------------------------------|-------------------|
C|----------|--------------------------------------|-------------------|
G|---------*|--------------------------------------|*------------------|
D|------4--*|--------------------------------------|*------------------|
A|---2------|--2--2--2--2--2--2--2--2--2--2--2--2--|---2--3--4--5------|

       Q  q  q  e     Q  q  q  e     Q  q  q  e   4x       (Slapped)
F|---|--------------|--------------|---------------|--|----------------|
C|---|--------------|--------------|---------------|--|----------------|
G|---|--------------|--------------|--------------*|--|*---------------|
D|---|--------------|--------------|--------------*|--|*---------------|
A|---|--2--3--4--5--|--2--3--4--5--|--2--3--2--1---|--|----------------|

       e  e  e  e  s  s  e  s              e  e  e  E  s  e  q   7x
F|------------r-----r--------------------|--------r---------------|-----|
C|------------e-----e--------------------|--------e---------------|-----|
G|------------s-----s--------------x-----|--------s--------------*|-----|
D|------------t-----t-----------x-----x--|--2--2--t--3--1--1-----*|-----|
A|------0--0-----0-----0--0--0-----------|--------------------1---|-----|

    e  e  e  e  s  s  e  s              e  e  e  E  s  e  q
F|---------r-----r--------------------|--------r--------------|----------|
C|---------e-----e--------------------|--------e--------------|----------|
G|---------s-----s--------------x-----|--------s--------------|----------|
D|---------t-----t-----------x-----x--|--2--2--t--3--1--1--1--|--(1)-----|
A|---0--0-----0-----0--0--0-----------|-----------------------|----------|

F|---|-------|----------------------------------------------------------|
C|---|-------|----------------------------------------------------------|
G|---|-------|----------------------------------------------------------|
D|---|--(1)--|----------------------------------------------------------|
A|---|-------|----------------------------------------------------------|


========================================================================
==                       TABLATURE EXPLANATION                        ==
========================================================================

The <#> mean to sustain the note as long a the rythm mark says.

----------                ----------                ----t---|
----5h8--- Hammeron       ----(8)--- Ghost          ----6---| Tap
----------                ---------- Note           --------|
----5p8--- Pulloff        ----------                --------|

----------                ----------                -----p--|
----5/8--- Slide Up       -----x---- Dead           -----7--| Pop
----------                ---------- Note           --s-----|
----5\8--- Slide Down     ----------                --5-----| Slap

----------                |------| Repeat         --------|
----5~~~-- Vibrato        |*----*|                ---5^---| Bend
----------                |*----*|                --------|
----------                |------|                --------|

----------                ----------                --------|
-4:------- Time           ----------                --------|
-4:------- Signature      ----------                --------|
----------                ----------                --------|

Rhythm:
  w = whole note            W = dotted whole
  h = half note             H = dotted half
  q = quarter note          Q = dotted quarter
  e = eighth note           E = dotted eighth
  s = sixteenth note        S = dotted sixteenth
  t = 32nd note             T = dotted 32nd
  x = 64th note             X = dotted 64th
  ^ = triplet
Suggest correction
comments
print report bad tab
8 comments total. Showing first comments.
+2 reply
AxL_ 10 Aug 14, 2006 06:03 AM

great tab dude, i ·:.l.o.v.e.d.:· it!! keep up he good work! ;)

+1 reply
IvanHo 134 Aug 03, 2007 09:13 AM

best tab on the site!

0 reply
Sky Is Over18 61 Nov 20, 2008 04:37 PM

I dont get how to play this eitger its hard

guest
Wanna post a correction for this tab? Suggest correction