Oops, an error
Loading. Please wait.

Freak On A Leash Tab

version 4
by Korn
43,652 views 18 this week
1 commentread comment
1 2 3 4 5
worth learning
x 4
add to favorites
launch autoscroll
font size
0
reset
how to read this tab
guitar tuner
Tab Pro tools
  • play this tab
  • loop segment
  • change instrument
  • show fretboard
  • metronome
×
Best way to learn
"Freak On A Leash"
Autoscroll
slow
fast
+/-
esc
set tempo
stop
Contributor
munkyheadojo

artist:korn
album:follow the leader
song:freak on a leash

I play a six string in EADGBE ,but i can play 
any korn song i want and its always correct.

Notation;
~ = let ring
/ = slide

Intro;
|----17------10-|---10~-17---|
|------16---8---|--8------16-|
|-15~------8----|-8----------|
|---------------|------------|
|---------------|------------|
|---------------|------------|

pre-chourus
|-------------------
|-------------------
|-------------------
|-9/10-9-9/10-9-9-6-
|-------0------0----
|-------------------

chourus
|--------------
|--------------
|--------------
|-777777755566-
|-777777766675-
|-5555555------

voice riff
|---88--887-
|-----------
|-----------
|-----------
|-----------
|-99--99----

pre outro riff
|--------------------
|--------------------
|--------------------
|4567-4567-4567-4567-
|4567-4567-4567-4567-
|2345-2345-2345-2345-

Well, thats what i play and it sounds
right to me.
comments
print report bad tab
1 comment total.
0 reply
mattstatic wrote on January 2 2004, 12:00 am

its a gd tabs nice1. but i think the chorus is different:
e|--------------|(not the strumin pattern)
B|--------------|
G|-9------------|
D|-9--9--10--7--|
A|-7--9--10--7--|
E|----7--8---5--|

and the pre outro riff
e|------------------------|----------|
B|------------------------|----------|
G|------------------------|----------|
D|-4-5-6-7----------------|-4-5-4-3--|on 4th time play this
A|-4-5-6-7-x3-------------|-4-5-4-3--|
E|-2-3-4-5----------------|-2-3-2-1--|

I want to post or [tab]
guest
You may want to rate the tab now too:
select rating
Please do not post tabs as comments. Select "correction" instead!