Oops, an error
Loading. Please wait.

Got The Life Tab

version 1
by Korn
58,041 views 18 this week
18 commentsread comments
1 2 3 4 5
x 19
add to favorites
launch autoscroll
font size
0
reset
how to read this tab
guitar tuner
Autoscroll
slow
fast
+/-
esc
set tempo
stop
Help us to improve Ultimate-Guitar.com Take our survey!
×
THIS TAB IS 100% CORRECT. IF YOU DISAGREE THEN U ARE WRONG. BUT
YOU ARE LUCKY BEKUZ U HAVE FOUND THE MOST CORRECT INTERPRETATION OF
"GOT THE LIFE" OUT THERE. IT IT FORMATED TO ACCOMODATE A 6-STRING
GUITAR BEKUZ OF COURSE KORN USES THOSE BITCH ASS 7-STRINGERS.
NOW NOW PEOPLE, U MUST TUNE DOWN A FULL STEP FOR THIS SONG, THAT MEANS
(DGCFAD). THIS SONG HAS A LOT OF OTHER NUANCES IN THE BACKROUND, IF U
REALLY NEED TO KNOW SUM, EMAIL ME (SpUdWEiRdO@aol.com).
HERE ARE THE CHORDS:

B5:     2244xx
A5:     0022xx
F5:     122xxx
Eb5:    6688xx
Ebmaj7: 6x00xx


[Intro] (x2)

   B5                       A5         F5         Eb5         B5
D|----------------------------------------------------------------------|
A|-7-7-7-7-7-7-7-7-7-7-7-7--5-5-5-5-5-/8-8-8-8-8-/14-14-14-14-14-14--15-|
F|-x-x-x-x-x-x-x-x-x-x-x-x--x-x-x-x-x--x-x-x-x-x---x--x--x--x--x--x---x-|
C|-4-4-4-4-4-4-4-4-4-4-4-4--2-2-2-2-2-/8-8-8-8-8-/11-11-11-11-11-11--12-|
G|----------------------------------------------------------------------|
D|----------------------------------------------------------------------|

                              A5         F5     Eb5         B5
D|----------------------------------------------------------------------|
A|-7-7-7-7--7-7-7-7-7-7--7-7--5-5-5-5-5-/8-8-8-/15-15-15-15-15-15-15-\7-|
F|-x-x-x-x--x-x-x-x-x-x--x-x--x-x-x-x-x--x-x-x---x--x--x--x--x--x--x--x-|
C|-4-4-4-4--4-4-4-4-4-4--4-4--2-2-2-2-2-/5-5-5-/12-12-12-12-12-12-12-\4-|
G|----------------------------------------------------------------------|
D|----------------------------------------------------------------------|


                 A5         F5         Eb5         B5
D|----------------------------------------------------------------------|
A|-7-7-7-7--7-7--5-5-5-5-5-/8-8-8-8-8-/14-14-14-14-14-14-15--7-7-7--7-7-|
F|-x-x-x-x--x-x--x-x-x-x-x--x-x-x-x-x---x--x--x--x--x--x--x--x-x-x--x-x-|
C|-4-4-4-4--4-4--2-2-2-2-2-/5-5-5-5-5-/11-11-11-11-11-11-12--4-4-4--4-4-|
G|----------------------------------------------------------------------|
D|----------------------------------------------------------------------|


                                           (2nd time)
             A5          F5          Eb5
Ebmaj7.......................
D|----------------------------------------------------------------------|
A|-7-7--7-7--5--5-5-5-5-/8--8-8-8-8-8-8-8-8--8--------------------------|
F|-x-x--x-x--x--x-x-x-x--x--x-x-x-x-x-x-x-x--x--------------------------|
C|-4-4--4-4--2--2-2-2-2-/5--5-5-5-5-5-5-5-5--6--------------------------|
G|----------------------------------------------------------------------|
D|----------------------------------------------------------------------|

             Verse: w/whammy pedal(pitch sounds 15ma)
  (GTR. 1)
D|--14---------------15------14--(19)----14-----------------------------|
A|----------------------------------------------------------------------|
F|----------------------------------------------------------------------|
C|----------------------------------------------------------------------|
G|----------------------------------------------------------------------|
D|----------------------------------------------------------------------|


  (GTR. 2)(3x times)
D|--3-3--3-3-3-3---|
A|--5-5--5-5-5-5---|
F|--4-4--4-4-4-4---|
C|-----------------|
G|-----------------|
D|-----------------|


  (GTR. 1)
D|--14---------------19-----14----------------14----15----14-(19)--14---|
A|-----------17---------------------------------------------------------|
F|----------------------------------------------------------------------|
C|----------------------------------------------------------------------|
G|----------------------------------------------------------------------|
D|----------------------------------------------------------------------|

D|--14---------------19-----14----|
A|-----------17-------------------|
F|--------------------------------|
C|--------------------------------|
G|--------------------------------|
D|--------------------------------|


    GET YOUR BOOGIE ON!!!!
D|-----------------------------------------------------------------------|
A|-----------------------------------------------------------------------|
F|-----------------------------------------------------------------------|
C|-----------------------------------------------------------------------|
G|-4-4-x-x-2-2-4-4-x-x-x-x-4-4-x-x-4-4-x-x-2-2-4-4-x-x-x-x-4-4-x-x-4-4-x-|
D|-----------------------------------------------------------------------|

D|-----------------------------------------------------------|
A|-----------------------------------------------------------|
F|-----------------------------------------------------------|
C|-----------------------------------------------------------|
G|-x-2-2-4-4-x-x-x-x-4-4-x-x-4-4-x-x-2-2-4-4-x-x-x-x-4-4-x-x-|
D|-----------------------------------------------------------|

    ....(VERSE 1 AGAIN)....

[Chorus] (x2)

   B5                       A5         F5         Eb5         B5
D|----------------------------------------------------------------------|
A|-7-7-7-7-7-7-7-7-7-7-7-7--5-5-5-5-5-/8-8-8-8-8-/14-14-14-14-14-14--15-|
F|-x-x-x-x-x-x-x-x-x-x-x-x--x-x-x-x-x--x-x-x-x-x---x--x--x--x--x--x---x-|
C|-4-4-4-4-4-4-4-4-4-4-4-4--2-2-2-2-2-/8-8-8-8-8-/11-11-11-11-11-11--12-|
G|----------------------------------------------------------------------|
D|----------------------------------------------------------------------|

                              A5         F5     Eb5         B5
D|----------------------------------------------------------------------|
A|-7-7-7-7--7-7-7-7-7-7--7-7--5-5-5-5-5-/8-8-8-/15-15-15-15-15-15-15-\7-|
F|-x-x-x-x--x-x-x-x-x-x--x-x--x-x-x-x-x--x-x-x---x--x--x--x--x--x--x--x-|
C|-4-4-4-4--4-4-4-4-4-4--4-4--2-2-2-2-2-/5-5-5-/12-12-12-12-12-12-12-\4-|
G|----------------------------------------------------------------------|
D|----------------------------------------------------------------------|


                 A5         F5         Eb5         B5
D|----------------------------------------------------------------------|
A|-7-7-7-7--7-7--5-5-5-5-5-/8-8-8-8-8-/14-14-14-14-14-14-15--7-7-7--7-7-|
F|-x-x-x-x--x-x--x-x-x-x-x--x-x-x-x-x---x--x--x--x--x--x--x--x-x-x--x-x-|
C|-4-4-4-4--4-4--2-2-2-2-2-/5-5-5-5-5-/11-11-11-11-11-11-12--4-4-4--4-4-|
G|----------------------------------------------------------------------|
D|----------------------------------------------------------------------|


                                           (2nd time)
             A5          F5          Eb5
Ebmaj7.......................
D|----------------------------------------------------------------------|
A|-7-7--7-7--5--5-5-5-5-/8--8-8-8-8-8-8-8-8--8--------------------------|
F|-x-x--x-x--x--x-x-x-x--x--x-x-x-x-x-x-x-x--x--------------------------|
C|-4-4--4-4--2--2-2-2-2-/5--5-5-5-5-5-5-5-5--6--------------------------|
G|----------------------------------------------------------------------|
D|----------------------------------------------------------------------|

[Bridge]
w/ring modulater 2x
  (BASS GTR IN ())
  (B)                           (A)           (F)       (Eb)
D|----------------------------------------------------------------------|
A|-------------------------------8-----------------------10-------------|
F|-8-------------------------------------------9------------------------|
C|----------------------------------------------------------------------|
G|----------------------------------------------------------------------|
D|----------------------------------------------------------------------|


D|----------------------------------------------------------------------|
A|-------------------------------8--------------------------------------|
F|-8-------------------------------------------9------------------------|
C|----------------------------------------------------------------------|
G|----------------------------------------------------------------------|
D|----------------------------------------------------------------------|

       SO COME DANCE WITH ME........2x

    (GTR. 1)
D|-------13b--(13b)-----13b------------13b--(13b)-----13b---------------|
A|----------------------------------------------------------------------|
F|----------------------------------------------------------------------|
C|----------------------------------------------------------------------|
G|----------------------------------------------------------------------|
D|----------------------------------------------------------------------|


     (GTR. 2)                                                  (2nd
time)
D|------------------------------------------------------------|---------|
A|-12b--(12b)-----12b--(12b)-----12b--(12b)-----12b--(12b)----|----(12)-|
F|-------------0--------------0--------------0--------------0-|---------|
C|-------------3--------------3--------------3--------------3-|---------|
G|------------------------------------------------------------|---------|
D|------------------------------------------------------------|---------|

[Chorus]

last part: (a lot of times)

D|------------------------|
A|-7--7--7-7-7-/14-/15----|
F|-x--x--x-x-x-/-x-/x-----|
C|-4--4--4-4-4-/11-/12----|
G|------------------------|
D|------------------------|



************************************

| /    Slide up
| x    Dead note
| \    Slide down
| (n)  Ghost note
| b    Bend

************************************
Suggest correction
comments
print report bad tab
18 comments total. Showing first comments.
0 reply
jopey 25 Feb 10, 2002 12:00 AM

A GOOD TAB DUDE FEEN BJOR SHAM
CJONES

0 reply
Dexter Holland 0 Apr 20, 2002 12:00 AM

ARE

0 reply
Dexter Holland 0 Apr 20, 2002 12:00 AM

ARE

guest
You may want to rate the tab now too:
select rating
Wanna post a correction for this tab? Suggest correction