Oops, an error
Loading. Please wait.
We have an official Got The Life tab made by UG professional guitarists. Check out the tab »
×
by Korn
7,272 views 1 this week
3 commentsread comments
1 2 3 4 5
1 last vote to show rating
add to favorites
×
Save as Personal and add changes to this tab that will be seen only by you. Learn more ›
×
You can save this tab as Personal to edit and correct it or add notes. All changes will be seen only by you. Learn more »
launch autoscroll
font size
0
reset
guitar tuner
backing track
0:00
0:00
edit
Autoscroll
slow
fast
+/-
esc
set tempo
stop
Author
Difficulty
Bass Figure 1.  Chorus X8   0:00-0:30

F |------------------------------------------|
C |------------------------------------------|
G |------------------------------------------|
D |------------------------5-5-5-------------|
A |--0--000--0--0--000--0---------6-6-6--4-4-|

Bass Figure 2.  Verse X3 before pause   0:31-0:38

F |---------------------------------|
C |---------------------------------|
G |---------------------------------|
D |---------------------------------|
A |-1h2-2-x-1h2-2-x-2-x-1h2-2h3-3-x-|


Bass Figure 2.  Verse X7   0:39-0:52

F |---------------------------------|
C |---------------------------------|
G |---------------------------------|
D |---------------------------------|
A |-1h2-2-x-1h2-2-x-2-x-1h2-2h3-3-x-|


0:53-0:54
F |-----------------|
C |-----------------|
G |-----------------|
D |-----------------|
A |-1h2-2-x-1h2-2-2-|


Bass Figure 2.  Verse X8   1:02-1:17

F |---------------------------------|
C |---------------------------------|
G |---------------------------------|
D |---------------------------------|
A |-1h2-2-x-1h2-2-x-2-x-1h2-2h3-3-x-|

Bass Figure 1.  Chorus X8   1:18-1:48

F |---------------------------------------------|
C |---------------------------------------------|
G |---------------------------------------------|
D |------------------------5-5-5----------------|
A |--0--000--0--0--000--0---------6-6-6--4-4----|


Bass Figure 3.  Interlude  X4 before lyrics and then another X4 for the “Each day I can 
it swallow…”   1:49-2:19

F |-------------------------------------------------|
C |-------------------------------------------------|
G |-------------------------------------------------|
D |--7--7--7--7--7--7--7--7--5--5--5----------------|
A |-----------------------------------6--6--6--4--4-|


Bass Figure 2 X8   2:20-2:35

F |---------------------------------|
C |---------------------------------|
G |---------------------------------|
D |---------------------------------|
A |-1h2-2-x-1h2-2-x-2-x-1h2-2h3-3-x-|


Bass Figure 1.  Chorus X8   2:36-3:05

F |------------------------------------------|
C |------------------------------------------|
G |------------------------------------------|
D |------------------------5-5-5-------------|
A |--0--000--0--0--000--0---------6-6-6--4-4-|



Bass Figure 1.  X4 “Got the life!  Got the Life!  Got the Life!”   3:06-3:21

F |------------------------------------------|
C |------------------------------------------|
G |------------------------------------------|
D |------------------------5-5-5-------------|
A |--0--000--0--0--000--0---------6-6-6--4-4-|


Outro, let fade until song ends.   3:22-3:48

F |---------------|
C |---------------|
G |---------------|
D |---------------|
A |--0------------|

            
            
Suggest correction
Creating personal tab
Creating personal tab
You can edit any tab online and save it as your Personal.

You can edit, replace or remove any tab part or add personal notes – all changes will be seen only by you.

Personal tabs can be accessed anytime from any device, even offline.
Learn more »
Give kudos to tab author, rate the tab!
1 2 3 4 5
comments
print report bad tab
3 comments total.
0 reply
rrandumbb 10 Jul 09, 2010 10:33 PM

'Bass Figure 3. Interlude' I find incorrect. I think there's a lot less slapping and more slides on the A string. Other than this, good job. Thanks.

0 reply
rrandumbb 10 Jul 09, 2010 10:38 PM

My bad; not slides. The notes you have are correct, but they're not played in multiples, I believe. I don't know, I've been wrong before.

0 reply
oleg324td 10 May 16, 2015 01:34 PM

Bass Figure 1. Chorus X8 0:00-0:30

some changes

slap on open A string, and pull on G second fret (A note)

Like this.

G- 2 2
- 5
A-00 000 6 4

guest
You may want to rate the tab now too:
select rating
Wanna post a correction for this tab? Suggest correction