Oops, an error
Loading. Please wait.

Got The Life Bass Tab

version 6
version 6
by Korn
5,212 views 1 this week
no commentswrite comment
1 2 3 4 5
2 more votes to show rating
add to favorites
launch autoscroll
font size
0
reset
guitar tuner
Autoscroll
slow
fast
+/-
esc
set tempo
stop
Help us to improve Ultimate-Guitar.com Take our survey!
×
Author
Difficulty
intermediate
Intro
F|-------------------|
C|-------------------|
G|-------------------|
D|-------------5-----|
A|-0-00-00-000---6-4-|
Verse:
F:-----------------------------------------|
C:-----------------------------------------|
G:-------x-x-------x-x-----------x-x-------|
D:-------x-x-------x-x-----------x-x-------|
A:-1/2-2-x-x-1h2-2-x-x-1/2-2h3-3-x-x-1h2-2-| Slap All Man  
Bridge I ( Distortion)
F|-------------------|
C|-------------------|
G|-------------------|
D|----5-----7~-5-----|
A|-0~---6-4------6-4-|
Outro ("Got the life, got the life..."
F|----------|
C|----------|
G|----------|x4 (Distortion)
D|----5-----|
A|-0~---6-4-|

F|------|
C|------|
G|------|
D|------|
A|-0~~~~|

Fun song, its got some sweet slaps
Suggest correction
Give kudos to tab author, rate the tab!
1 2 3 4 5
comments
print report bad tab
guest
You may want to rate the tab now too:
select rating
Wanna post a correction for this tab? Suggest correction