Oops, an error
Loading. Please wait.

Helmet In The Bush tab

version 4
version 4

Whole song

Interactive

by Korn
1,028 views 3 this week
no commentswrite comment
1 2 3 4 5
2 more votes to show rating
add to favorites
×
Save as Personal and add changes to this tab that will be seen only by you. Learn more ›
×
You can save this tab as Personal to edit and correct it or add notes. All changes will be seen only by you. Learn more »
launch autoscroll
font size
0
reset
how to read this tab
guitar tuner
edit
Autoscroll
slow
fast
+/-
esc
set tempo
stop
First off this is my tab from watching several good live videos that show position 
positioning and i can judge from there what is being done.  i can guarantee this is the most 
of the bad tabs on here at the moment

Tuning : 7 String Tuned Down a Step (A D G C F a d)


              Intro
     (palm mute intro n play 2x)
d-----------------------------------------|
a-----------------------------------------|
F-----------------------------------------|
C-----------------------------------------|
G-----------------------------------------|
D--------------8-9-8-7---------7-8-7-6----|
A------0-0-0-0---------0-0-0-0------------|

   (you can PM the A string but not sure if thats wut they do)
               (Play 4x)
d-----------------------------------------|
a-----------------------------------------|
F-----------------------------------------|
C---------10/11\10\9---------9/-10\9\8----|
G----------x--x--x-x---------x--x-\x-x----|
D----------8/-9\-8\7---------7/-8-\7\6----|
A--0-0-0-0-----------0-0-0-0--------------|

 Munky      +      Head  same time
hold during
d------        d-------------12---------------------------|
a------        a--12^12^12^12-------hold note bend up at--|
F------        F------------------------------------------|
C------        C------------------------------------------|
G------        G------------------------------------------|
D--2---        D------------------------------------------|
A--0---        A------------------------------------------|

  verse
(palm mute the A-0 note)
(this is distinctly the position of munky played live)
  play 4x

d-----------------------------------------------|
a-----------------------------------------------|
F-----------------------------------------------|
C---------7/8\7-------------------8/9\8---------| the slide can even just
G---------7/8\7-------------------8/9\8---------| be a quick bend to make
D---------5/6\5-------------------6/7\6---------| same sound instead of the
A--0-0-0-0------0000-pause-0-0-0-0------00000*--| 2 slides shown here

d--------------------0---------------------------|. hold for 1/2 second then stop with palm to
a--------------------0--->. restart riff . play--|8x
F--------------------0---------------------------|.
C-------7/8\7--------5---------------------------|.
G-------7/8\7------------------------------------|
D-------5/6\5------------------------------------|
A-0-0--0-----0-0--0-0----------------------------|

       ending 4x

d---------------------------------------------------------------|
a---------------------------------------------------------------|
F---------------------------------------------------------------|
C---------------------------------------------------------------|
G---------10/11\10\9--------9/10\9\8----------------------------|
D---------9-/10\9-\8--------8/9-\8\7----------------------------|
A--0-0--0-8-/9-\8-\7-0-0--0-7/8-\7\6----------------------------|

            
            
Suggest correction
Creating personal tab
Creating personal tab
You can edit any tab online and save it as your Personal.

You can edit, replace or remove any tab part or add personal notes – all changes will be seen only by you.

Personal tabs can be accessed anytime from any device, even offline.
Learn more »
Give kudos to tab author, rate the tab!
1 2 3 4 5
comments
print report bad tab
guest
Wanna post a correction for this tab? Suggest correction