Oops, an error
Loading. Please wait.
We have an official Here To Stay tab made by UG professional guitarists. Check out the tab »
×
by Korn
567 views 3 this week
1 commentread comment
1 2 3 4 5
2 more votes to show rating
add to favorites
×
Save as Personal and add changes to this tab that will be seen only by you. Learn more ›
×
You can save this tab as Personal to edit and correct it or add notes. All changes will be seen only by you. Learn more »
launch autoscroll
font size
0
reset
guitar tuner
backing track
0:00
0:00
edit
Autoscroll
slow
fast
+/-
esc
set tempo
stop
Difficulty
intermediate
Well people this is my first tab, but ive been playing this song on bass for a very long 
I hope you like it and if you have any requested tabs or you can just comment me on the 
would be very much apperciated, send me an email--> thunder_thumbs@hotmail.com. Enjoy.

S=slap
P=pop
h=hammer on

Munky intro
F|------------------|
C|------------------|
G|------------------|
D|------------------|
A|------------------|
0:00-0:10

F|------------------|
C|------------------|
G|------------------|x8
D|------------------|
A|0--1-0321012------|
  S  S
0:10-0:29

F|---------------------------|
C|---------------------------|
G|-----------2------------1--|x6
D|0--1-032101---0--1-32101---|
A|---------------------------|
0:29-0:58

F|-------------|
C|-------------|
G|-------------|x4
D|3------------|
A|-2-0232032-02|
0:58-1:07

F|-----------|
C|-----------|
G|-----------|x4
D|-----3-0---|
A|0--3--3--1-|
1:07-1:26

F|------------------|
C|------------------|
G|------------------|x8
D|------------------|
A|0--1-0321012------|
  S  S
1:27-1:45

F|-------------|
C|-------------|
G|-------------|x4
D|3------------|
A|-2-0232032-02|
1:46-1:55

F|-----------|
C|-----------|
G|-----------|x8
D|-----3-0---|
A|0--3--3--1-|
1:56-2:33

F|------------------------------------------|
C|------------------------------------------|
G|----2----------------------2--------------|x4
D|------------------------------------------|
A|0-0--0--0-0-0-0--xxxx--0-0--0--0-0-0--xxx-|
  S S PS  S S S S  SSSS  S S PS  S S S  SSS
2:33-2:53

F|-----------------------------------------|
C|-----------------------------------------|
G|----2---------------------2--------------|x4(on the 4th time leave the
D|-----------------------------------------|   last 1h2 out)
A|0-0--0--0-0-0-0--1h2--0-0--0--0-0-0--1h2-|
  S S PS  S S S S       S S PS  S S S
2:54-3:11

F|---------------------------|
C|---------------------------|
G|-----------2------------1--|x1
D|0--1-032101---0--1-32101---|
A|---------------------------|
3:12-3:16

F|-------------|
C|-------------|
G|-------------|x4
D|3------------|
A|-2-0232032-02|
3:17-3:26

F|-----------|
C|-----------|
G|-----------|x4
D|-----3-0---|
A|0--3--3--1-|
3:27-3:45

F|------------------|
C|------------------|
G|------------------|x8
D|------------------|
A|0--1-0321012------|
  S  S
3:46-4:04

F|----------------------------------|
C|----------------------------------|
G|----2------------------2----------|x4
D|----------------------------------|
A|0-0--0--0-0-0-0----0-0--0--0-0-0--|
  S S PS  S S S S    S S PS  S S S
4:05-end
Suggest correction
Creating personal tab
Creating personal tab
You can edit any tab online and save it as your Personal.

You can edit, replace or remove any tab part or add personal notes – all changes will be seen only by you.

Personal tabs can be accessed anytime from any device, even offline.
Learn more »
Give kudos to tab author, rate the tab!
1 2 3 4 5
comments
print report bad tab
1 comment total.
0 reply
SlapFieldy 10 Mar 05, 2007 10:57 AM

Very nice, everything seems right and it's easy to follow, well done

guest
Wanna post a correction for this tab? Suggest correction