Oops, an error
Loading. Please wait.
We have an official Here To Stay tab made by UG professional guitarists. Check out the tab »
×
by Korn
13,703 views 9 this week
1 commentread comment
1 2 3 4 5
x 4
add to favorites
×
Save as Personal and add changes to this tab that will be seen only by you. Learn more ›
×
You can save this tab as Personal to edit and correct it or add notes. All changes will be seen only by you. Learn more »
launch autoscroll
font size
0
reset
guitar tuner
backing track
0:00
0:00
edit
Autoscroll
slow
fast
+/-
esc
set tempo
stop
Author
Difficulty
----------------------------------------------------------------------------
			     HERE TO STAY - Korn
----------------------------------------------------------------------------

Tabbed By : Michael Hylands (mhylands)
e-mail: mhylands@hotmail.com

Alright, here is the correct tab for the bass part of "Here To Stay."  Many parts can be
using the slap technique incorporated by Fieldy (thumb-pinky slap) however, only the
parts are actually played with slap as seen on the "Live at CBGB's" DVD.  Hope you enjoy
this song.

REVISION: The bridge was changed a bit, because I realized Fieldy actually follows the
and then slaps.  But when he's doing the guitar follow, he slaps with his hand muting
the 7th fret, rather than play a strong 12th, and he does the following muted slapping 
at 7 as well.  In other words, think of the riff as A|0-0-70-0000-7777|0-0-70--000-7777|,
obviously mute the notes.


Tuning: 5-String Bass, tuned down one whole step (ADGCF)

INTRO

Rest x4

F|----------------|----------------|----------------|----------------|
C|----------------|----------------|----------------|----------------|
G|----------------|----------------|----------------|----------------|
D|----------------|----------------|----------------|----------------|
A|0---1---0310012-|0---1---0310012-|0---1---0310012-|0---1---0310012-|

F|----------------|----------------|----------------|----------------|
C|----------------|----------------|----------------|----------------|
G|----------------|----------------|----------------|----------------|
D|----------------|----------------|----------------|----------------|
A|0---1---0310012-|0---1---0310012-|0---1---0310012-|0---1---0310012-|

F|----------------|----------------|----------------|----------------|
C|----------------|----------------|----------------|----------------|
G|----------------|----------------|----------------|----------------|
D|--------------7-|--------------6-|--------------7-|--------------6-|
A|5---6---586556--|5---6---586556--|5---6---586556--|5---6---586556--|


VERSE

F|----------------|----------------|----------------|----------------|
C|----------------|----------------|----------------|----------------|
G|----------------|----------------|----------------|----------------|
D|--------------7-|--------------6-|--------------7-|--------------6-|
A|5---6---586556--|5---6---586556--|5---6---586556--|5---6---586556--|

F|----------------|----------------|----------------|----------------|
C|----------------|----------------|----------------|----------------|
G|----------------|----------------|----------------|----------------|
D|--------------7-|--------------6-|--------------7-|--------------6-|
A|5---6---586556--|5---6---586556--|5---6---586556--|5---6---586556--|


PRECHORUS

F|----------------|----------------|----------------|----------------|
C|----------------|----------------|----------------|----------------|
G|----------------|----------------|----------------|----------------|
D|3---------------|3---------------|3---------------|3---------------|
A|----2-023202--02|--2---023202--02|----2-023202--02|--2---023202----|


CHORUS

F|----------------|----------------|----------------|----------------|
C|----------------|----------------|----------------|----------------|
G|----------------|----------------|----------------|----------------|
D|--------3---0---|--------3---0---|--------3---0---|--------3---0---|
A|0---3-----3---1-|0---3-----3---11|0---3-----3---1-|0---3-----3---11|


VERSE

F|----------------|----------------|----------------|----------------|
C|----------------|----------------|----------------|----------------|
G|----------------|----------------|----------------|----------------|
D|--------------7-|--------------6-|--------------7-|--------------6-|
A|5---6---586556--|5---6---586556--|5---6---586556--|5---6---586556--|

F|----------------|----------------|----------------|----------------|
C|----------------|----------------|----------------|----------------|
G|----------------|----------------|----------------|----------------|
D|--------------7-|--------------6-|--------------7-|--------------6-|
A|5---6---586556--|5---6---586556--|5---6---586556--|5---6---586556--|


PRECHORUS

F|----------------|----------------|----------------|----------------|
C|----------------|----------------|----------------|----------------|
G|----------------|----------------|----------------|----------------|
D|3---------------|3---------------|3---------------|3---------------|
A|----2-023202--02|--2---023202--02|----2-023202--02|--2---023202----|


CHORUS

F|----------------|----------------|----------------|----------------|
C|----------------|----------------|----------------|----------------|
G|----------------|----------------|----------------|----------------|
D|--------3---0---|--------3---0---|--------3---0---|--------3---0---|
A|0---3-----3---1-|0---3-----3---11|0---3-----3---1-|0---3-----3---11|


INTERLUDE

F|----------------|----------------|----------------|----------------|
C|----------------|----------------|----------------|----------------|
G|----------------|----------------|----------------|----------------|
D|--------3---0---|--------3---0---|--------3---0---|--------3---0---|
A|0---3-----3---1-|0---3-----3---1-|0---3-----3---1-|0---3-----3---1-|


BRIDGE
  T T PT  TPT PTPT T T PT  TPT PTPT T T PT  TPT PTPT T T PT  TPT PTPT
F|----------------|----------------|----------------|----------------|
C|----------------|----------------|----------------|----------------|
G|----------------|----------------|----------------|----------------|
D|----------------|----------------|----------------|----------------|
A|0-0-x0-0000-xxxx|0-0-x0--000-xxxx|0-0-x0-0000-xxxx|0-0-x0--000-xxxx|
      +                +                +                +
  TPTPTPTPTPTPTPTP TPTPTPTPTPTPTPTP TPTPTPTPTPTPTPTP TPTPTPTPTPT
F|----------------|----------------|----------------|----------------|
C|----------------|----------------|----------------|----------------|
G|----------------|----------------|----------------|----------------|
D|----------------|----------------|----------------|----------------|
A|xxxxxxxxxxxxxxxx|xxxxxxxxxxxxxxxx|xxxxxxxxxxxxxxxx|xxxxxxxxxxx-----|


BREAKDOWN

F|-----------------|-----------------|-----------------|-----------------|
C|-----------------|-----------------|-----------------|-----------------|
G|-----------------|-----------------|-----------------|-----------------|
D|---(7)-----------|---(7)-----------|---(7)-----------|---(7)-----------|
A|0-0-120-0000-0123|0-0-120--000-012-|0-0-120-0000-0123|0-0-120--000-012-|

F|-----------------|-----------------|-----------------|-----------------|
C|-----------------|-----------------|-----------------|-----------------|
G|-----------------|-----------------|-----------------|-----------------|
D|---(7)-----------|---(7)-----------|---(7)-----------|---(7)-----------|
A|0-0-120-0000-0123|0-0-120--000-012-|0-0-120-0000-0123|0-0-120--000-012-|


FILL

F|----------------|----------------|
C|----------------|----------------|
G|----------------|----------------|
D|--------------7-|--------------6-|
A|5---6---586556--|5---6---586556--|


PRECHORUS

F|----------------|----------------|----------------|----------------|
C|----------------|----------------|----------------|----------------|
G|----------------|----------------|----------------|----------------|
D|3---------------|3---------------|3---------------|3---------------|
A|----2-023202--02|--2---023202--02|----2-023202--02|--2---023202----|


CHORUS

F|----------------|----------------|----------------|----------------|
C|----------------|----------------|----------------|----------------|
G|----------------|----------------|----------------|----------------|
D|--------3---0---|--------3---0---|--------3---0---|--------3---0---|
A|0---3-----3---1-|0---3-----3---11|0---3-----3---1-|0---3-----3---11|


OUTRO

F|----------------|----------------|----------------|----------------|
C|----------------|----------------|----------------|----------------|
G|----------------|----------------|----------------|----------------|
D|----------------|----------------|----------------|----------------|
A|0---1---0310012-|0---1---0310012-|0---1---0310012-|0---1---0310012-|

F|----------------|----------------|----------------|----------------|
C|----------------|----------------|----------------|----------------|
G|----------------|----------------|----------------|----------------|
D|----------------|----------------|----------------|----------------|
A|0---1---0310012-|0---1---0310012-|0---1---0310012-|0---1---0310012-|

F|-----------------|-----------------|-----------------|-----------------|
C|-----------------|-----------------|-----------------|-----------------|
G|-----------------|-----------------|-----------------|-----------------|
D|---(7)-----------|---(7)-----------|---(7)-----------|---(7)-----------|
A|0-0-120-0000-----|0-0-120--000-----|0-0-120-0000-----|0-0-120--000-----|

F|-----------------|-----------------|-----------------|-----------------|
C|-----------------|-----------------|-----------------|-----------------|
G|-----------------|-----------------|-----------------|-----------------|
D|---(7)-----------|---(7)-----------|---(7)-----------|---(7)-----------|
A|0-0-120-0000-----|0-0-120--000-----|0-0-120-0000-----|0-0-120--000-----|

|(7) alternative note
| T  thumb slap
| P  pinky slap
| /  slide up
| \  slide down
| h  hammer-on
| p  pull-off
| ~  vibrato
| +  harmonic
| x  Mute note
============================================================================

            
            
Suggest correction
Creating personal tab
Creating personal tab
You can edit any tab online and save it as your Personal.

You can edit, replace or remove any tab part or add personal notes – all changes will be seen only by you.

Personal tabs can be accessed anytime from any device, even offline.
Learn more »
comments
print report bad tab
1 comment total.
0 reply
Den Alec 337 Jul 20, 2007 05:04 AM

great tab

guest
You may want to rate the tab now too:
select rating
Wanna post a correction for this tab? Suggest correction