Oops, an error
Loading. Please wait.

Hushabye tab

version 1
version 1

Whole song

Interactive

by Korn
2,174 views 3 this week
1 commentread comment
1 2 3 4 5
x 3
add to favorites
×
Save as Personal and add changes to this tab that will be seen only by you. Learn more ›
×
You can save this tab as Personal to edit and correct it or add notes. All changes will be seen only by you. Learn more »
launch autoscroll
font size
0
reset
how to read this tab
guitar tuner
edit
Autoscroll
slow
fast
+/-
esc
set tempo
stop
D|---------3-3-|2x|--------5-5--|2x
A|-------------|  |-------------|
F|o----0-------|  |-----7------o|
C|--2----------|  |--4----------|  Repeat this 8x
G|o------------|  |------------o|
D|-------------|  |-------------|
A|-------------|  |-------------|

D|--------------------|---------------------|
A|--------------------|---------------------|
F|o-------------------|--------------------o|
C|--------------------|---------------------|  Repeat this 4x
G|o-------------------|--------------------o|
D|----5---5----5---5--|----9----4--12--9----|
A|--0-3-0-3--0-3-0-3--|--2-7--0-2--10--7----|

D|----------------------------------|------------------------------|
A|--12-12-12-12-x-x-17-17-17-17-x-x-|--10-10-10-10-x-x-15-15-15-15-|
F|o-11-11-11-11-x-x-16-16-16-16-x-x-|--9--9--9--9--x-x-14-14-14-14-|
C|--9--9--9--9--x-x-14-14-14-14-x-x-|--7--7--7--7--x-x-12-12-12-12-|
G|o---------------------------------|------------------------------|
D|----------------------------------|------------------------------|
A|----------------------------------|------------------------------|

D---------------|
A--14-14-14-14--|
F--13-13-13-13-o|
C--11-11-11-11--|  Repeat this 4x
G--------------o|
D---------------|
A---------------|

D--------------------------|------------------------|
A--------------------------|------------------------|
Fo-------------------------|------------------------|
C--9-9-9-9-x-x-9-9-9-9-x-x-|5-5-5-5-x-x-5-5-5-5-x-x-|
Go-9-9-9-9-x-x-9-9-9-9-x-x-|5-5-5-5-x-x-5-5-5-5-x-x-|
D--7-7-7-7-x-x-7-7-7-7-x-x-|3-3-3-3-x-x-3-3-3-3-x-x-|
A--------------------------|------------------------|

D--------------------------|-------------------------|
A--------------------------|-------------------------|
F--------------------------|------------------------o|
C--------------------------|7-7-7-7-x-x-8-8-8-8-x-x--|  Repeat this 2x
G--7-7-7-7-x-x-7-7-7-7-x-x-|7-7-7-7-x-x-8-8-8-8-x-x-o|
D--7-7-7-7-x-x-7-7-7-7-x-x-|5-5-5-5-x-x-6-6-6-6-x-x--|
A--5-5-5-5-x-x-5-5-5-5-x-x-|-------------------------|

I'm sure this is about right. Korn rules!

            
            
Suggest correction
Creating personal tab
Creating personal tab
You can edit any tab online and save it as your Personal.

You can edit, replace or remove any tab part or add personal notes – all changes will be seen only by you.

Personal tabs can be accessed anytime from any device, even offline.
Learn more »
Give kudos to tab author, rate the tab!
1 2 3 4 5
comments
print report bad tab
1 comment total.
0 reply
here_to_stay 62 Aug 15, 2007 12:36 PM

Good tab, but you missed a riff from the second verse.

guest
Wanna post a correction for this tab? Suggest correction