Oops, an error
Loading. Please wait.

I Will Protect You Tab

by Korn
1,855 views 1 this week
no commentswrite comment
1 2 3 4 5
please rate
add to favorites
launch autoscroll
font size
0
reset
how to read this tab
guitar tuner
Autoscroll
slow
fast
+/-
esc
set tempo
stop
Help us to improve Ultimate-Guitar.com Take our survey!
×
Contributor
Difficulty
Elvisz 1,898
intermediate
KoRn - I Will Protect You - Untitled

Tabbed by Elvisz (elvisz84@yahoo.com)
Tuning : 7 String Tuned Low to High (A D G C F a d)

Vocal: Jonathan Houseman Davis 'Hiv'
Guitar: James Randal Shaffer 'Munky'
Bass: Reginald Arvizu 'Fieldy'
Drums: Terry Bozzio

Verse:
d|-------------------------|
a|-------------------------|
F|-------------------------|
C|-------------------------|	(guitar1)
G|-------------------------|
D|-77--777-777--7-7-7--777-|
A|-55--555-555--5-5-5--555-|
   ..  ... ...  . . .  ...  .palm mute

d|--------------------------------------------|
a|--------------------------------------------|
F|--------------------------------------------|
C|--------------------------------------------|	(guitar2)
G|-//19~~\\14~~//15~\\12~/14/15\14\12\11~~7~~-|
D|--------------------------------------------|
A|--------------------------------------------|

Pre-Chorus:
d|----------------------------------------------------|
a|----------------------------------------------------|
F|----------------------------------------------------|
C|----------------------------------------------------|
G|-777x-999x-101010x-555x-999x-777x-999x-101010x-555x-|
D|-777x-999x-101010x-555x-999x-777x-999x-101010x-555x-|
A|-555x-777x- 8 8 8x-333x-777x-555x-777x- 8 8 8x-333x-|

Chorus:
d|---------------|
a|---------------|
F|---------------|
C|---------------|	(guitar1)
G|-7~~~~~-5~~~~~-|
D|-7~~~~~-5~~~~~-|
A|-5~~~~~-3~~~~~-|

Fill1:
d|-----------------|
a|-----------------|
F|-----------------|
C|-----------------|
G|-//12~~~~~\11~~~-|
D|-----------------|
A|-----------------|

Verse:
d|-------------------------|
a|-------------------------|
F|-------------------------|
C|-------------------------|	(guitar1)
G|-------------------------|
D|-77--777-777--7-7-7--777-|
A|-55--555-555--5-5-5--555-|
   ..  ... ...  . . .  ...  .palm mute

d|--------------------------------------------|
a|--------------------------------------------|
F|--------------------------------------------|
C|--------------------------------------------|	(guitar2)
G|-//19~~\\14~~//15~\\12~/14/15\14\12\11~~7~~-|
D|--------------------------------------------|
A|--------------------------------------------|

Pre-Chorus:
d|----------------------------------------------------|
a|----------------------------------------------------|
F|----------------------------------------------------|
C|----------------------------------------------------|
G|-777x-999x-101010x-555x-999x-777x-999x-101010x-555x-|
D|-777x-999x-101010x-555x-999x-777x-999x-101010x-555x-|
A|-555x-777x- 8 8 8x-333x-777x-555x-777x- 8 8 8x-333x-|

Chorus:
d|---------------|
a|---------------|
F|---------------|
C|---------------|	(guitar1)
G|-7~~~~~-5~~~~~-|
D|-7~~~~~-5~~~~~-|
A|-5~~~~~-3~~~~~-|

Bridge1:
d|------------------------------------------|
a|------------------------------------------|
F|-1212-1212-1111-1111------1010-1010-99-99-|
C|-xxxx-xxxx-xxxx-xxxx------xxxx-xxxx-xx-xx-|
G|-1010-1010- 9 9- 9 9------ 8 8- 8 8-77-77-|
D|------------------------------------------|
A|------------------------------------------|

Bridge2:
d|------------------------------------------|
a|------------------------------------------|
F|-1212-1212-1111-1111------1010-1010-99-99-|
C|-xxxx-xxxx-xxxx-xxxx------xxxx-xxxx-xx-xx-|	(guitar1)
G|-1010-1010- 9 9- 9 9------ 8 8- 8 8-77-77-|
D|------------------------------------------|
A|------------------------------------------|

d|----------------------------------|
a|----------------------------------|
F|----------------------------------|
C|----------------------------------|	(guitar2)
G|-1010-1010-99-99------88-88-77-77-|
D|-xxxx-xxxx-xx-xx------xx-xx-xx-xx-|
A|- 8 8- 8 8-77-77------66-66-55-55-|

Bridge3:
d|-------------------------------------------------|
a|-------------------------------------------------|
F|-1212-1212-1111-1111-------1010-1010-99-99-------|
C|-xxxx-xxxx-xxxx-xxxx-------xxxx-xxxx-xx-xx-------|
G|-1010-1010- 9 9- 9 9-22-2~- 8 8- 8 8-77-77-22-2~-|
D|---------------------00-0~-----------------00-0~-|
A|-------------------------------------------------|
                       ..                    ..     .palm mute

d|-------------------------------------------|
a|-------------------------------------------|
F|-------------------------------------------|
C|-------------------------------------------|	(guitar2)
G|-1010-1010-99-99-22-2~---88-88-77-77-22-2~-|
D|-xxxx-xxxx-xx-xx-00-0~---xx-xx-xx-xx-00-0~-|
A|- 8 8- 8 8-77-77---------66-66-55-55-------|
                   ..              .. .       .palm mute

Bridge4:
d|---------------------------------|
a|---------------------------------|
F|---------------------------------|
C|---------------------------------|
G|---------------------------------|
D|-2~~--------------2~-------------|
A|-0~~-6-5-3--3-1-0-0~-653-310-100-|

d|---------------------------------|
a|---------------------------------|
F|---------------------------------|
C|---------------------------------|
G|---------------------------------|
D|-2~~--------------2~-------------|
A|-0~~-6-5-3--3-1-0-0~-653-310-100-|

d|---------------------------|
a|---------------------------|
F|---------------------------|
C|---------------------------|
G|---------------------------|
D|----------2~~--------------|
A|----------0~~-6-5-3--3-1-0-|

d|---------------------------|
a|---------------------------|
F|---------------------------|
C|---------------------------|
G|---------------------------|
D|----------2~~--------------|
A|----------0~~-6-5-3--3-1-0-|

d|------------------------------|
a|------------------------------|
F|------------------------------|
C|------------------------------|
G|------------------------------|
D|-2~~--------------222-222-222-|
A|-0~~-6-5-3--3-1-0-000-000-000-|

Chorus:
d|---------------|
a|---------------|
F|---------------|
C|---------------|	(guitar1)
G|-7~~~~~-5~~~~~-|
D|-7~~~~~-5~~~~~-|
A|-5~~~~~-3~~~~~-|

Fill2:
d|-----------------|
a|-----------------|
F|-//14~~~~~\13~~~-|
C|-----------------|
G|-----------------|
D|-----------------|
A|-----------------|

Outro:
d|-------------------|
a|-------------------|
F|-------------------|
C|-------------------|	(guitar1)
G|-77x77x-55x55x-----|
D|-xx-xx--xx-xx--2-2-|
A|-55x55x-33x33x-0-0-|
comments
We did not receive enough feedback on this tab! Please rate:
print report bad tab
1 2 3 4 5
I want to post or [tab]
guest
You may want to rate the tab now too:
select rating
Please do not post tabs as comments. Select "correction" instead!