Oops, an error
Loading. Please wait.

Insane Tab

by Korn
2,413 views 159 this week
no commentswrite comment
1 2 3 4 5
x 3
add to favorites
launch autoscroll
font size
0
reset
how to read this tab
guitar tuner
Autoscroll
slow
fast
+/-
esc
set tempo
stop
Help us to improve Ultimate-Guitar.com Take our survey!
×
Author
Difficulty
Tuning
intermediate
D A D G B E
KORN - INSANE


TUNING: 
        
7th   6th    5th   4th   3rd   2nd   1st (high e string)
 A     D      G     C     F     A     D   

LISTEN TO SONG FOR ARRAIGNMENT

HOPE YOU ENJOY :) 


[INTRO]


D -----------------------------------|-------------------------------------
A -----------------------------------|-------------------------------------
F -----------------------------------|-------------------------------------
C -----------------------------------|-------------------------------------
G ---12-12-12-12-12-12-12-12---------|-------------------------------------
D ---14-14-14-14-14-14-14-14---------|----12-12-12-12-12-12-12-12----------
A -----------------------------------|----14-14-14-14-14-14-14-14----------
          PLAY 16 TIMES                         PLAY 16 TIMES

D -----------------------------------|-------------------------------------
A -----------------------------------|-------------------------------------
F -----------------------------------|-------------------------------------
C -----------------------------------|-------------------------------------
G ---12-12-12-12-11-11-11-12-12-12---|-------------------------------------
D ---14-14-14-14-14-14-14-14-14-14---|---12-12-12-12sb-12sb-12sb-12sb-12b~-
A -----------------------------------|---14-14-14-14sb-14sb-14sb-14sb-14b~-
           PLAY 16 TIMES                       PLAY 16 TIMES


D -------------------------------------------------------------------------
A -------------------------------------------------------------------------
F -------------------------------------------------------------------------
C -------------------------------------------------------------------------
G -------------------------------------------------------------------------
D ---3---7\4---3---7\4---3---7\4---3---7\4---------7\6---------------------
A -0-1-0-5\2-0-1-0-5\2-0-1-0-5\2-0-1-0-5\2-0-2-1-0-5\4---------------------


[VERSE]
(I ONLY GOT THE RHYTHM GUITAR FOR THE VERSE)

D -------------------------------------------------------------------------
A -------------------------------------------------------------------------
F -------------------------------------------------------------------------
C -------------------------------------------------------------------------
G -------------------------------------------------------------------------
D -3-2-~~~-------2-3-7-6-~~~---------3-2-~~~-------2-3-7-6-~~~-------------
A -1-0-~~~-------0-1-5-4-~~~---------1-0-~~~-------0-1-5-4-~~~-------------


[CHORUS]

D -----------------------------------|-------------------------------------
A -----------------------------------|-------------------------------------
F -----------------------------------|-------------------------------------
C -----------------------------------|-------------------------------------
G ---12-12-12-12-12-12-12-12---------|-------------------------------------
D ---14-14-14-14-14-14-14-14---------|----12-12-12-12-12-12-12-12----------
A -----------------------------------|----14-14-14-14-14-14-14-14----------
          PLAY 16 TIMES                         PLAY 16 TIMES


D -----------------------------------|-------------------------------------
A -----------------------------------|-------------------------------------
F -----------------------------------|-------------------------------------
C -----------------------------------|-------------------------------------
G ---9--9--9--9--9--9--9--9--9--9----|12-12-12-12\11-11-11-11/12-12-12-12--
D ---10-10-10-10-10-10-10-10-10-10---|X--X--X--X-\X--X--X--X-/X--X--X--X---
A -----------------------------------|10-10-10-10\9--9--9--9-/10-10-10-10--
           PLAY 16 TIMES                       PLAY 16 TIMES


D -----------------------------------|-------------------------------------
A -----------------------------------|-------------------------------------
F -----------------------------------|-------------------------------------
C -----------------------------------|-------------------------------------
G ---12-12-12-12-11-11-11-12-12-12---|-------------------------------------
D ---14-14-14-14-14-14-14-14-14-14---|---12-12-12-12-12-12-12-12-----------
A -----------------------------------|---14-14-14-14-14-14-14-14-----------
           PLAY 16 TIMES                       PLAY 16 TIMES


D -----------------------------------|-------------------------------------
A -----------------------------------|-------------------------------------
F -----------------------------------|-------------------------------------
C -----------------------------------|-------------------------------------
G ---9--9--9--9--9--9--9--9--9--9----|12-12-12-12\11-11-11-11/12-12-12-12--
D ---10-10-10-10-10-10-10-10-10-10---|X--X--X--X-\X--X--X--X-/X--X--X--X---
A -----------------------------------|10-10-10-10\9--9--9--9-/10-10-10-10--
           PLAY 16 TIMES                       PLAY 16 TIMES


D -------------------------------------------------------------------------
A -------------------------------------------------------------------------
F -------------------------------------------------------------------------
C -------------------------------------------------------------------------
G -------------------------------------------------------------------------
D ---3---7\4----3---7\4----3---7\4----3---7\4----------7\6-----------------
A -0-1-0-5\2--0-1-0-5\2--0-1-0-5\2--0-1-0-5\2--0-2-1-0-5\4-----------------



PLAY VERSE AGAIN

PLAY CHORUS AGAIN


[BREAK]
(LISTEN TO TRACK FOR ARRANGEMENT)

D -------------------------------------------------------------------------
A -------------------------------------------------------------------------
F -------------------------------------------------------------------------
C -------12--12-12----------14--14-14---------11--11-11---------9---8-8----
G -------X---X--X-----------X---X--X----------X---X--X----------X---X-X----
D -7-7---10--10-10----6-6---12--12-12---3-3---9---9--9----2-2---7---6-6----
A -5-5----------------4-4---------------1-1---------------0-0--------------


[ENDING 2]

D -------------------------------------------------------------------------
A -------------------------------------------------------------------------
F -------------------------------------------------------------------------
C -------12--12-12----------14--14-14---------12--12-12--------------------
G -------X---X--X-----------X---X--X----------X---X--X---------------------
D -7-7---10--10-10----6-6---12--12-12---3-3---10--10-10---12-6-------------
A -5-5----------------4-4---------------1-1---------------10-4-------------

[ENDING 3]

D -------------------------------------------------------------------------
A -------------------------------------------------------------------------
F -------------------------------------------------------------------------
C -------12--12-12----------14--14-14-----------12-12-12-14-14-14----------
G -------X---X--X-----------X---X--X------------X--X--X--X--X--X-----------
D -7-7---10--10-10----6-6---12--12-12---10-10---10-10-10-12-12-12----------
A -5-5----------------4-4---------------8--8-------------------------------



[PRE CHORUS]

D -------------------------------------------------------------------------
A -------------------------------------------------------------------------
F -------------------------------------------------------------------------
C -------------------------------------------------------------------------
G -------------------------------------------------------------------------
D ------------6--------------6--------------6--------------8---------------
A -5-4-6-4-7--4---5-4-6-4-7--4---5-4-6-4-7--4---5-4-6-4-9--6---------------



D -------------------------------------------------------------------------
A -------------------------------------------------------------------------
F -------------------------------------------------------------------------
C -------------------------------------------------------------------------
G -------------------------------------------------------------------------
D ------------6--------------6--------------6--------------8---------------
A -5-4-6-4-7--4---5-4-6-4-7--4---5-4-6-4-7--4---5-4-6-4-7--6---------------



D -------------------------------------------------------------------------
A -------------------------------------------------------------------------
F -------------------------------------------------------------------------
C -------------------------------------------------------------------------
G -------------------------------------------------------------------------
D ------------6--------------6--------------6--------------8---------------
A -5-4-6-4-7--4---5-4-6-4-7--4---5-4-6-4-7--4---5-4-6-4-8--6---------------


LEGEND:

(x) palm mute
(/) Slide Up  
(\) Slide Down  
(h) Hammer On  
(p) Pull Off  
(b) Bend
(sb)slow bend 
(r) Release 
(v) Vibrato
Show proposed correction Suggest correction
Give kudos to tab author, rate the tab!
1 2 3 4 5
comments
print report bad tab
guest
You may want to rate the tab now too:
select rating
Wanna post a correction for this tab? Suggest correction