Oops, an error
Loading. Please wait.

Issues Bass Tab

by Korn
2,784 views 1 this week
no commentswrite comment
1 2 3 4 5
please rate
add to favorites
launch autoscroll
font size
0
reset
guitar tuner
Autoscroll
slow
fast
+/-
esc
set tempo
stop
Help us to improve Ultimate-Guitar.com Take our survey!
×
Contributor
Andrew Zara 3,572
Band- Korn
Album- Issues

1.Dead
2.Falling Away From Me
3.Trash
4.4U
5.Beg For Me
6.Make Me Bad
7.It's Gonna Go Away
8.Wake Up
9.Am I Going Crazy
10.Hey Daddy
11.Somebody Someone
12.No Way
13.Let's Get This Party Started
14.Wish You Could Be Me
15.Counting
16.Dirty

1.DEAD

Don't Know

2.FALLING AWAY FROM ME

Tunning: A,D,G,C,F

Intro
F|----------------|
C|----------------|
G|----------------|
D|----------------|
A|-0-6-0-06-0-6-0-|

Verse
F|----------------------|
C|----------------------|
G|----------------------|With FUZZ distortion
D|----------------------|
A|-1-0--1-0--1-0--1-0-2-|

Chorus
F|-------------------------|
C|-------------------------|
G|-------------------------|
D|----2-----------2--------|
A|-0----3--221-0----3-33/7-|

verse III
F|-----------------|
C|-----------------|
G|-----------------|With FUZZ distortion
D|-----------------|
A|-0/1-0/1-0/1-0/1-|

Bridge
F|-------|
C|-------|
G|-------|
D|-------|
A|-0~~~~-|

F|-------|
C|-------|
G|-------|With Phase
D|-7---5-|
A|-------|

Bridge II (Life's falling away from me)
F|-------------------------------|
C|-------------------------------|
G|-------------------------------|With Fat distortion
D|---2--------2----2---2---------|
A|-0---3--2-0---3----0---3--2-0~-|

Heavy Brdige: Same as Intro

Outro
F|--------|
C|--------|
G|--------|
D|--------|
A|-0~~~~~-|

3.TRASH

5-String bass tuned down one whole step A,D,G,C,F)

(Intro)
F-------------------|
C-------------------|
G-------------------|
D-------------------|
A-0~~-1~~-1-2~~-1~~-|

(Verse)
F------------------------------------|
C------------------------------------|
G------------------------------------| X6
D------------------------------------|
A-4-3-2--4--3--2--4-3-2--4--3--2--1--|

(Pre-chorus)
F------------------------|
C------------------------|
G------------------------| X2
D--------4---------------|
A-2-0-2---2--0-2-0-2--3--|

F---------------------|
C---------------------|
G---------------------|
D------4--------------|
A-0-2---2--0-2-0-2--3-|

F-----------------------|
C-----------------------|
G-----------------------|
D--------4--------------|
A-2-0-2---2--0-2-0-2--3-|

(Chorus)
F-----------------------|
C-----------------------|
G-----------------------|
D-----------------------|
A-0~~-1-1~~-2-2~~-1-1~~-|

F-------------------------|
C-------------------------|
G-------------------------|
D-------------------------|
A-0-0~~-1-1~~-2-2~~-1-1~~-|

4.4U

Tunning: A,D,G,C,F

Verse
F|------------|
C|------------|
G|------3~~---|x3
D|-0~~--------|
A|------------|

Variation
F|-----------|
C|-----------|
G|-2~~---2~~-|x1
D|-----------|
A|-----------|

Outro
F|-----|
C|-----|
G|-----|x1
D|-0~~-|
A|-----|

5.BEG FOR ME

Tunning: A,D,G,C,F

Cool song to play

Intro (With fat wah)
F|--------------------|
C|--------------------|
G|-5-5/6\5-----5/6----|x3 (Listen song for timin)
D|----------66-----0--|
A|-------------------4|

F|---------|
C|---------|
G|-5-5/6\5-|x1
D|---------|
A|---------|

Heavy Intro
F|-------------------------------|
C|-------------------------------|
G|-------------------------------|
D|-------------------------------|
A|-3-44-34-34-3/7-3-44-34-34-3/4-|

Verse (With fat wah) Listen song for timin
F|-----------------------------------------|
C|-----------------------------------------|
G|-5/6--------5/6--------5/6--------5/6----|
D|-----0----------0----------0-------------|
A|-------4--3-------4--3-------4--3------4-|

F|------------------------------------|
C|------------------------------------|
G|---5/6--------5/6--------5/6--------|
D|-------0----------0----------0------|
A|-3-------4--3-------4--3-------4--3-|

Pre - Chorus: Same as heavy Intro

Verse II (With fat wah)Listen song for timin
F|-----------------------------------------|
C|-----------------------------------------|
G|-5/6--------5/6--------5/6--------5/6----|
D|-----0----------0----------0-------------|
A|-------4--3-------4--3-------4--3------4-|

F|-----------------------------------|
C|-----------------------------------|
G|-5/6--------5/6--------5/6---------|
D|-----0----------0----------0-------|
A|-------4--3-------4--3-------4--3\-|

Pre - Chorus II
F|-------------------------------|
C|-------------------------------|
G|-------------------------------|
D|-------------------------------|
A|-3-44-34-34-3/7-3-44-34-34-3/4-|

F|---------------------------|
C|---------------------------|
G|---------------------------|
D|---------------------------|
A|-3-44-34-34-3/7-3-44-34-34-|

F|-------------------------------|
C|-------------------------------|
G|-------------------------------|x2
D|-------------------------------|
A|-3-44-34-34-3/7-3-44-34-34-3/4-|

Chorus
F|------------------|
C|------------------|
G|----3------5------|
D|-------------4----|
A|-0----4---3-----5-|

Bridge (With fat wah)
F|--------------------|
C|--------------------|
G|-5-5/6\5-----5/6----|x7
D|----------66-----0--|
A|-------------------4|


F|---------|
C|---------|
G|-5-5/6\5-|x1
D|---------|
A|---------|

Last pre - chorus
F|-------------------------------|
C|-------------------------------|
G|-------------------------------|
D|-------------------------------|
A|-3-44-34-34-3/7-3-44-34-34-3/4-|

F|---------------------------|
C|---------------------------|
G|---------------------------|
D|---------------------------|
A|-3-44-34-34-3/7-3-44-34-34-|

F|-------------------------------|
C|-------------------------------|
G|-------------------------------|x4
D|-------------------------------|
A|-3-44-34-34-3/7-3-44-34-34-3/4-|

Outro: The (0)s are played with fuzz distortion.
F|--------------------------------------------------|
C|--------------------------------------------------|
G|--------------------------------------------------|
D|----------------------------------------------0/4-|
A|-(0)--(0)/0~-(0)--(0)/0~-(0)--(0)/0~-(0)--(0)-----|

(0)/0 Means: Play the 0 with FUZZ and then disable the fuzz and let
the note ring with normal distortion.

6.MAKE ME BAD

Tune Down "b" and "e" strings down a Whole step:
   intro:
 G----------------------------|
 D----------------------------|        repeat intro as many
 A----------------------------|        times as neccesary
 D----------------------------|
 A-1--0-0-X-0--1-1-X----------|

  verse:     repeat as many times as necessary
 G---------------------------------------|
 D--------11-------11------10-------10---|
 A-9--9-9----9--9-9--9--8-8---8--8-8---8-|
 D---------------------------------------|
 A---------------------------------------|

  chorus:  repeat as many times as neccesary
 G------------------------------------|
 D------------------------------------|
 A------------------------------------|
 D----0-0-0-0-0-0-0-------------------|
 A--5-0-0-0-0-0-0-0-4---2-------------|

 bridge:
                        repeat this 4 times
 G-------------------|
 D-------------------|
 A-------------------|
 D-------------------|
 A-1--0-0-X-0--1-1-X-|

 Then after doing the pattern above 4 times then do this 4 times:

 G-----------------|
 D-----------------|
 A-----------------|
 D-----------------|
 A-0-0-XXX-1-1-XXX-|

7.IT'S GONNA GO AWAY

Tunning: A,D,G,C,F

Intro
F|----------------|
C|----------------|
G|------------1/2-|
D|-0-2--1-0--0----|
A|----------------|

Verse: Same as Intro

Last time
F|------------------------|
C|------------------------|
G|------------1/2---------|
D|-0-2--1-0--0-----0~--22-|
A|------------------------|

8.WAKE UP

Tunning: A,D,G,C,F

Intro I
F|------------------------------------------|
C|------------------------------------------|
G|------------------------------------------|
D|-------------------3----------------------|
A|-2/3-2/3-2/3-2/3-2----2/3-2/3-2/3-2/3-2-0-|

Intro II
F|--------------------|
C|--------------------|
G|--------------------|
D|-0/1\0/1\0/1--------|
A|--------------3-2-0-|

Pre - verse
F|-------------|
C|---------4/5-|
G|-44454-4-----|x3
D|-------------|
A|-------------|

F|-----------|
C|-----------|
G|-44454-3-2-|x1
D|-----------|
A|-----------|

Verse
F|-------------|
C|---------4/5-|
G|-44454-4-----|x3
D|-------------|
A|-------------|

F|---------|
C|---------|
G|-44454---|x1
D|---------|
A|-------2-|

F|-------------|
C|---------4/5-|
G|-44454-4-----|x3
D|-------------|
A|-------------|

F|-------------|
C|-------------|
G|-44454-3-2---|x1
D|-------------|
A|-----------2-|

F|-------------|
C|---------4/5-|
G|-44454-4-----|x3
D|-------------|
A|-------------|

F|-----------------|
C|-----------------|
G|-44454-3-2---2/3-|x1
D|-----------------|
A|-----------2-----|

F|-------------|
C|---------4/5-|
G|-44454-4-----|x3
D|-------------|
A|-------------|

F|------------|
C|------------|
G|-44454-4----|x1
D|------------|
A|---------2\-|

Pre - Chorus: Same as Intro I

Chorus: Same as Intro II

Verse II
F|-------------|
C|---------4/5-|
G|-44454-4-----|x3
D|-------------|
A|-------------|

F|-------------|
C|-------------|
G|-44454-3-2---|x1
D|-------------|
A|-----------2-|

F|-------------|
C|---------4/5-|
G|-44454-4-----|x3
D|-------------|
A|-------------|

F|------------|
C|------------|
G|-44454-4----|x1
D|------------|
A|---------2\-|

Bridge
F|----------------------------|
C|----------------------------|
G|----------------------------|x1
D|----------------------------|
A|-3223~\-3223~\-223~\-3223~\-|

F|-------------------------|
C|-------------------------|
G|-------------------------|x1
D|-------------------------|
A|-223~\-3223~\-223~\-3223-|

Last Chorus
F|--------------------|
C|--------------------|
G|--------------------|x2
D|-0/1\0/1\0/1--------|
A|--------------3-2-0-|

F|-------------|
C|-------------|
G|-------------|x1 The 1s go with the drums
D|-1111--------|
A|-------3-2-0-|

F|---------|
C|---------|
G|---------|x1 The 1s go with the drums
D|-1111-1~-|
A|---------|

F|-------------|
C|-------------|
G|-------------|x1
D|-1111--------|
A|-------3-2-0-|

F|------------|
C|------------|
G|------------|x1
D|-1-1--------|
A|------3-2-0-|

F|-------------|
C|-------------|
G|-------------| Until fade out
D|-1111--------|
A|-------3-2-0-|

9.AM I GOING CRAZY

Don't Know

10.HEY DADDY

Tunning: A,D,G,C,F

This song is almost 100% bass, so enjoy.

Note: LISTEN SONG FOR TIMIN!!!! THIS SONG IS TRICKY.

Intro
F|----6--------------6------------|
C|-------5----5/7------5----------|
G|-4--------6-----4---------------|
D|---------------------------2-3--|
A|------------------------22------|

F|----6-----------------------|
C|-------5----5/7---55-6667/8-|
G|-4--------6-----4-----------|
D|----------------------------|
A|----------------------------|

Verse I
F|----6--------------6---6\-|
C|-------5----5/7------5----|
G|-4--------6-----4---------|
D|--------------------------|
A|--------------------------|

F|----6-------------6------|
C|-------5------------5-66-|
G|-4------------4----------|
D|-------------------------|
A|---------22--------------|

F|----6-----------------6----------|
C|-------5----------------5-6667/8-|
G|-4-----------------4-------------|
D|------------2-3------------------|
A|---------22----------------------|

F|----6----------------6-5-|
C|-------55-888776---------|
G|-4-----------------4-----|
D|-------------------------|
A|-------------------------|

F|----6--------8-7-6-|
C|-------5-----------|
G|-4-------4/8-------|
D|-------------------|
A|-------------------|

F|-----------6\------6---------|
C|---------------------7766----|
G|-----------------4-------5/7-|
D|---2-3-555-------------------|
A|-2---------------------------|

F|----6-----------------6----3\-|
C|-------5----------------------|
G|-4-----------------4----44----|
D|------------2/3---------------|
A|---------22-------------------|

F|----6--------------6------|
C|-------5-5-----------5-66-|
G|-4---------------4--------|
D|--------------------------|
A|-----------2/3------------|

Chorus
F|----------------|
C|----------------|
G|----------------|
D|----------------|
A|-XXXX2-XX-X-X-3-|

Verse II
F|-6-------7/9----6---|
C|---5---5----------5-|
G|-----6--------4-----|
D|--------------------|
A|--------------------|

F|----6--------------6--------|
C|-------5----5/7------5------|
G|-4-------55------4----------|
D|----------------------------|
A|-----------------------XX-2-|

F|----6--------------6-----|
C|-------5----5/7------5---|
G|-4-------55------4-------|
D|-------------------------|
A|-----------------------2-|

F|----6------------|
C|-------5-6667/8--|
G|-4---------------|
D|-----------------|
A|-----------------|

F|----6--------------6--------|
C|-------5----5/7-------------|
G|-4-------55------4---5-4----|
D|----------------------------|
A|-------------------------X2-|

F|----6---------------9---7/9\-|
C|-------5----5/7-------9------|
G|-4-------55------------------|
D|-----------------------------|
A|-----------------------------|

F|--------------------------|
C|--------------------66678-|
G|---------------4-5-5------|
D|-----2-3-5/6--------------|
A|-2-2----------------------|

F|----66--------------------------|
C|-------66----8-7-------555667-8-|
G|-4--------44--------4-----------|
D|--------------------------------|
A|--------------------------------|

Bridge
F|-4-4-4-4-5----4----4-4-4-4-5-4-4-4-|
C|-----------------------------------|
G|-----------------------------------|
D|-----------------------------------|
A|------------2---2------------------|

F|-4-4-4/5-4-4-4----4-4-4/5-4-4-4-|
C|--------------------------------|
G|--------------------------------|
D|--------------------------------|
A|--------------------------------|

Outro
F|---6-----7/9\-----6-----------|
C|-----5--------------5--6667/8-|
G|-4-------------4--------------|
D|------------------------------|
A|------------------------------|

F|---6---------------6-----------|
C|-----5--5/7\---------5---------|
G|-4-------------4-4-----------3-|
D|--------------------------2----|
A|----------------------222------|

F|-----6--------------6-----9---7\-|
C|-------5--5/7\--------5-0---0----|
G|-4-4-------------4-4-------------|
D|---------------------------------|
A|---------------------------------|

F|-----6--------------------6/7\-|
C|-------5-----------------------|
G|-4-4------------3--------------|
D|-------------2--------2/3------|
A|---------222-------XX----------|

F|----6-----------------6------------|
C|-------5----------------5--6667/8\-|
G|-4-----------------4---------------|
D|----------2------------------------|
A|------------3----------------------|

For Intro, verses and outro use a fat distortion.

11.SOMEBODY SOMEONE

Intro
F----------------------------------|
C----------------------------------|
G----------------------------------| X2
D--0--2-0-0-2-0-2------------------|
A----------------------------------|

F----------------------------------|
C----------------------------------|
G----------------------------------| X6
D--0-0-2-0-0-2-0-2-----------------|
A----------------------------------|

Verse
F----------3------------------------------------------------|
C-------------5---------5-----------------------------------|
G--3-3-3-------3-3-3---4------------------------------------|
D-----------------------------------------------------------|
A-----------------------------------------------------------|

Chorus
F---------------------------------|
C---------------------------------|
G---------------------------------|
D--0--2-0-0-2-0-2-----------------|
A---------------------------------|

F----------------------------------|
C----------------------------------|
G----------------------------------| X3
D--0-0-2-0-0-2-0-2-----------------|
A----------------------------------|

F--------------------------------------------------------------------|
C--------------------------------------------------------------------|
G--------------------------------------------------------------------|
D--0-2--2-1--0-2--2-1--0-0-0-0-2---2-1--0-2--2-1---------------------|
A--------------------------------------------------------------------|

Verse
F------------------------------------------------------|
C------------------------------------------------------|
G------------------------------------------------------|
D------------------------------------------------------|
A------------------------------------------------------|

F------------------------------------------------------|
C------------------------------------------------------|
G------------------------------------------------------|
D------------------------------------------------------|
A------------------------------------------------------|

Chorus
F---------------------------------|
C---------------------------------|
G---------------------------------|
D--0--2-0-0-2-0-2-----------------|
A---------------------------------|

F----------------------------------|
C----------------------------------|
G----------------------------------| X3
D--0-0-2-0-0-2-0-2-----------------|
A----------------------------------|

F--------------------------------------------------------------------|
C--------------------------------------------------------------------|
G--------------------------------------------------------------------|
D--0-2--2-1--0-2--2-1--0-0-0-0-2---2-1--0-2--2-1---------------------|
A--------------------------------------------------------------------|

Solo
F--------------------------------------------------------------------|
C--------------------------------------------------------------------|
G--------1-------1--------1--------------1---------------------------|
D-3333---3333---3333----3333---3-------------------------------------|
A--------------------------------------------------------------------|

Ending
F-------------------------------|
C-------------------------------|
G-------------------------- X12-|
D--0--2-0--0-0-0-3-2------------|
A-------------------------------|

F--------------------------|
C--------------------------|
G--------------------------|
D--0-----------------------|
A--------------------------|

12.NO WAY

Tunning: A,D,G,C,F

Intro
F|--------------|
C|--------------|
G|--------------|Listen song for timin
D|--------------|
A|-XXXX0-XXXX-0-|

Pre - verse (With fat distortion)
F|--------------|
C|--------------|
G|------------3-| the 4th time is played
D|--------------| with a diferent timin.
A|-00000-3/5\3--|

Verse: Same as Pre - verse

Chorus: Same as Intro

Pre - verse II (With fat distortion)
F|-----------------------|
C|-----------------------|
G|------------3----------|
D|-----------------------|
A|-00000-3/5\3--00000-3\-|

Bridge
F|----------------|
C|----------------|
G|----------------|x2 Listen song well fot this part
D|----------------|   'cause timin is tricky.
A|-0~-3--4--0-3-4-|

F|--------------|
C|--------------|
G|------------3-|x8 Slap the 0s
D|--------------|
A|-00000-3/5\3--|

PLay Chorus Until the end

13.LET'S GET THIS PARTY STARTED

Tunning: A,D,G,C,F

Verse
F|----------------------------------------------------|
C|----------------------------------------------------|
G|----------------------------------------------------|
D|----------------------------------------------------|
A|-0-XX-00-XX-00-XX-0-XXXXX----00-XX-00-XX-0-XXXXX-3\-|

F|-----------------------------------------------|
C|-----------------------------------------------|
G|-----------------------------------------------|X2
D|-----------------------------------------------|
A|-00-XX-00-XX-0-XXXXX----00-XX-00-XX-0-XXXXX-3\-|

F|----------------------------------------------|
C|----------------------------------------------|
G|----------------------------------------------|
D|----------------------------------------------|
A|-00-XX-00-XX-0-XXXXX----00-XX-00-XX-0-X-X-X-X-|

Pre - Chorus
F|---------------------|
C|---------------------|
G|---------------------|
D|----5----1----5----2-|
A|-0-----1---0-----1---|

Chorus
F|------------------------------|
C|------------------------------|
G|------------------------------|Play the (1) with FUZZ distortion
D|------------------------------|
A|-XXXXXXXXXXXXXXXXXXXX-X-X-(1)-|

Bridge
F|-------------------------|
C|-------------------------| Notes inside the () are played
G|-------------------------| with FUZZ distortion, the rest
D|-------------------------| are slaped.
A|-(1)-(0)-0-XX-000-XX-000-|

14.WISH YOU COULD BE ME

Verse

G|-----------|
D|-----------|
A|-----------|
E|-0-0-0-0-6-|

G|-----------|
D|-----------|
A|-----------|
E|-0-0-0-0-6-|

G|-----------|
D|-----------|
A|-----------|
E|-0-0-0-0-6-|

G|-----------|
D|-----------|
A|-----------|
E|-0-0-0-0-6-|

15.COUNTING

Tunning: A,D,G,C,F

Intro
F|---|
C|---|
G|---|
D|---|
A|-0-|

Heavy Intro
F|----------------------|
C|----------------------|
G|----------------------|
D|----------------------|
A|-2/3-0-2-00-2/3-0-2-0-|

Verse: Same as Heavy Intro

Chorus
F|----------|
C|----------|
G|----------|
D|---3--1---|
A|-2------0-|

Bridge
F|--------------------------------|
C|-----4---5---6--------4---5---6-|
G|-3-3---3---4---5--3-3---3---4---|x2
D|--------------------------------|
A|--------------------------------|

F|----------|
C|----------|
G|-3-3^-33^-|x11
D|----------|
A|----------|

F|-----|
C|-----|
G|-3~\-|x1
D|-----|
A|-----|

Play heavy intro

Last Chorus
F|----------|
C|----------|
G|----------|x7
D|---3--1---|
A|-2------0-|

F|----------|
C|----------|
G|----------|x1
D|---3--1~~-|
A|-2--------|

16.DIRTY

Tunning: A,D,G,C,F

Play the whole song with a fat distortion.

Intro
F|---99---9---10-|
C|---------------|
G|-7----7---7----|
D|---------------|
A|---------------|

Verse: Same as Intro

Pre - Chorus
F|-------------|
C|----10-9-----|
G|-7-----------|
D|-------------|
A|---------5-4-|

Chorus
F|------------|
C|------------|
G|------------|
D|-0--3-----3-|
A|-------1----|

Bridge X3
F|------------------|
C|------------------|
G|------------------|Play the 0s with the same rythm
D|-7--9-8---------7-|of the drums
A|--------00-0000---|


F|----------------|
C|----------------|
G|----------------|X1
D|-7--9-8---------|
A|--------00-0000-|

After Bridge play chorus until the end.
Suggest correction new What's this?
You can suggest a correction to this tab. Community and Mods will review your correction and vote to approve or reject it.
comments
We did not receive enough feedback on this tab! Please rate:
print report bad tab
1 2 3 4 5
guest
You may want to rate the tab now too:
select rating
Please do not post tabs as comments. Select "correction" instead!