Oops, an error
Loading. Please wait.

Killing bass

version 1
version 1

Whole song

Interactive

by Korn
980 views 1 this week
4 commentsread comments
1 2 3 4 5
x 6
add to favorites
×
Save as Personal and add changes to this tab that will be seen only by you. Learn more ›
×
You can save this tab as Personal to edit and correct it or add notes. All changes will be seen only by you. Learn more »
launch autoscroll
font size
0
reset
guitar tuner
edit
Autoscroll
slow
fast
+/-
esc
set tempo
stop
Author
Artist: Korn
Song: Killing
Album: Untitled
Bassist: Reginald "Fieldy" Arvizu
Tempo: 124.91 BPM


Tabbed By : Jimmy Rowe [JRowe3388]
e-mail: JRowe3388@gmail.com

Tuning: ADGCF


Intro:
F|-------------------------------------------|
C|-------------------------------------------|
G|-------------------------------------------|  x2
D|--------------------------------------5-\--|
A|-3-3--3333--3-3--3333--3-3--3333--6-5------|


Verse 1:
F|---------------------------------------------|
C|---------------------------------------------|
G|---------------------------------------------|  x2
D|---------------------------------------------|
A|-3-3-3-334--3-3-3-334--3-3-3-334--3-3-3-334--|

F|-------------------------------------------|
C|-------------------------------------------|
G|-------------------------------------------|  x2
D|--------------------------------------5-\--|
A|-3-3--3333--3-3--3333--3-3--3333--6-5------|


Chorus:
F|------------------------------------------------------------|
C|------------------------------------------------------------|
G|------------------------------------------------------------| x2
D|------------------------------------------------------------|
A|-6-6-66666-6-6--6-6-66666-6-6--3-3-33333-3-3--3-3-33333-3-3-|


Verse 2:
F|-------------------------------------------------|
C|-------------------------------------------------|
G|-------------------------------------------------|  x4
D|-------------------------------------------------|
A|-3-3-3-33-4--3-3-3-33-4--3-3-3-33-4--3-3-3-33-4--|

F|-------------------------------------------|
C|-------------------------------------------|
G|-------------------------------------------|  x2
D|--------------------------------------5-\--|
A|-3-3--3333--3-3--3333--3-3--3333--6-5------|


Chorus:
F|------------------------------------------------------------|
C|------------------------------------------------------------|
G|------------------------------------------------------------| x2
D|------------------------------------------------------------|
A|-6-6-66666-6-6--6-6-66666-6-6--3-3-33333-3-3--3-3-33333-3-3-|

Bridge: 
F|---------------------------------------|
C|---------------------------------------|
G|---------------------------------------|
D|---------------------------------------|
A|-0~------------------------------------|

Rest until Jon starts screaming, then play this
F|---------------------------------------|
C|---------------------------------------|
G|---------------------------------------|
D|---------------------------------------|
A|-8-5-8-5-8-5-8-585--7-5-7-5-7-5-775-75-|

F|--------------------------------------|
C|--------------------------------------|
G|--------------------------------------|
D|--------------------------------------|
A|-8-5-8-5-8-5-8-585--7-5-7-5-7-5-7-575-|

F|--------------------------------------|
C|--------------------------------------|
G|--------------------------------------|
D|--------------------------------------|
A|-3-0-3-0-3-0-3-030-2-0-2-0-2-0-2-020--|

F|--------------------------------------|
C|--------------------------------------|
G|--------------------------------------|
D|--------------------------------------|
A|-8-5-8-5-8-5-8-585--7-5-7-5-7-5-7-575-|

F|--------------------------------------|
C|--------------------------------------|
G|--------------------------------------|
D|--------------------------------------|
A|-8-5-8-5-8-5-8-585--7-5-7-5-7-5-7-575-|

F|--------------------------------------|
C|--------------------------------------|
G|--------------------------------------|
D|--------------------------------------|
A|-3-0-3-0-3-0-3-030-2-0-2-0-2----------|

Outro:
F|-------------------------------------------|
C|-------------------------------------------|
G|-------------------------------------------|  x2
D|--------------------------------------5-\--|
A|-3-3--3333--3-3--3333--3-3--3333--6-5------|

F|----------------------------------|
C|----------------------------------|
G|----------------------------------| x2
D|-----5------5---------------------|
A|-6-5----6-5----6-5-5--6-5-3-------|


            
            
Suggest correction
Creating personal tab
Creating personal tab
You can edit any tab online and save it as your Personal.

You can edit, replace or remove any tab part or add personal notes – all changes will be seen only by you.

Personal tabs can be accessed anytime from any device, even offline.
Learn more »
comments
print report bad tab
4 comments total. Showing first comments.
+1 reply
downloadsbacon 52 Jun 10, 2008 09:26 AM

is there a way to make it four string

0 reply
downloadsbacon 52 Jun 18, 2008 12:44 PM

Yeah just play bass with first two strings tuned to the tuning of the tab.
I played it and it sound almost Identical so yeah.

0 reply
downloadsbacon 52 Jun 18, 2008 12:50 PM

I think its
----------
----------
----------
---------------------
------------------------------5'
3-3--3333-3--3-3333-6-5
for the ending part of the intro

guest
You may want to rate the tab now too:
select rating
Wanna post a correction for this tab? Suggest correction