Oops, an error
Loading. Please wait.

Kiss tab

version 1
version 1

Whole song

Interactive

by Korn
15,759 views 30 this week
2 commentsread comments
1 2 3 4 5
x 8
add to favorites
×
Save as Personal and add changes to this tab that will be seen only by you. Learn more ›
×
You can save this tab as Personal to edit and correct it or add notes. All changes will be seen only by you. Learn more »
launch autoscroll
font size
0
reset
how to read this tab
guitar tuner
edit
Autoscroll
slow
fast
+/-
esc
set tempo
stop
Author
Difficulty
KoRn - Kiss - Untitled

Tabbed by Elvisz (elvisz84@yahoo.com)
Tuning : 7 String Tuned Low to High (A D G C F a d)

Vocal: Jonathan Houseman Davis 'Hiv'
Guitar: James Randal Shaffer 'Munky'
Bass: Reginald Arvizu 'Fieldy'
Drums: Terry Bozzio
additional drums: Jonathan Davis

Intro:
d|---------------------------------------------|
a|---------------------------------------------|
F|-9-9-9-9-12-12-12-12-17-17-17-19-16-16-16-14-|
C|-7-7-7-7-10-10-10-10-15-15-15-17-14-14-14-12-|
G|---------------------------------------------|
D|---------------------------------------------|
A|---------------------------------------------|

Fill1:(in intro)
d|----------|
a|----------|
F|-14-14~~--|
C|----------|
G|----------|
D|----------|
A|----------|

Verse:
d|---------------------------------------------|
a|---------------------------------------------|
F|-9-9-9-9-12-12-12-12-17-17-17-19-16-16-16-14-|
C|-7-7-7-7-10-10-10-10-15-15-15-17-14-14-14-12-|	(guitar1)
G|---------------------------------------------|
D|---------------------------------------------|
A|---------------------------------------------|

d|----------------------------|
a|----------------------------|
F|----------------------------|
C|----------------------------|	(guitar2)
G|----------------------------|
D|-5~~~~8~~~~13~~~~12~~~~~10~-|
A|----------------------------|

d|---------------------------------------------|
a|---------------------------------------------|
F|-9-9-9-9-12-12-12-12-17-17-17-19-16-16-16-14-|
C|-7-7-7-7-10-10-10-10-15-15-15-17-14-14-14-12-|	(guitar1)
G|---------------------------------------------|
D|---------------------------------------------|
A|---------------------------------------------|

d|----------------------------------------------------|
a|----------------------------------------------------|
F|----------------------------------------------------|
C|----------------------------------------------------|	(guitar2)
G|----------------------------------------------------|
D|-55555555888888881313131313131313121212121212121210-|
A|----------------------------------------------------|

Fill1:(in verse)
d|----------|
a|----------|
F|-14-14~~--|
C|----------|
G|----------|
D|----------|
A|----------|

Chorus:
(guitar1)
d|---------------------------|
a|---------------------------|
F|---------------------------|
C|--------------10~~~~-9~~~~-|	(guitar1)
G|-7~~~~-10~~~~-10~~~~-9~~~~-|
D|-7~~~~-10~~~~- 8~~~~-7~~~~-|
A|-5~~~~- 8~~~~--------------|

(guitar2)
d|---------------------------------|
a|---------------------------------|
F|---------------------------------|
C|---------------------------------|	(guitar2)
G|---------------------------------|
D|-77-77-77-7\\\\\-77-77-77-7\\\\\-|
A|-55-55-55-5\\\\\-55-55-55-5\\\\\-|
   .. .. .. .      .. .. .. .       .palm mute

d|-----------------------------|
a|-----------------------------|
F|-----------------------------|
C|-----------------------------|	(guitar2)
G|-----------------------------|
D|-77-77-77-7-7-77-7-7-7~~-7-77|
A|-55-55-55-5-5-55-5-5-5~~-5-55|
   .. .. ..     .  .       .    .palm mute

(guitar3)
d|-----------------------------------|
a|-1717171717171717-1515151515151515-|
F|-----------------------------------|
C|-----------------------------------|	(guitar3)
G|-----------------------------------|
D|-----------------------------------|
A|-----------------------------------|

d|-----------------------------------|
a|-1717171717171717-1212121313121010-|
F|-----------------------------------|
C|-----------------------------------|	(guitar3)
G|-----------------------------------|
D|-----------------------------------|
A|-----------------------------------|

Verse:
d|---------------------------------------------|
a|---------------------------------------------|
F|-9-9-9-9-12-12-12-12-17-17-17-19-16-16-16-14-|
C|-7-7-7-7-10-10-10-10-15-15-15-17-14-14-14-12-|	(guitar1)
G|---------------------------------------------|
D|---------------------------------------------|
A|---------------------------------------------|

d|----------------------------|
a|----------------------------|
F|----------------------------|
C|----------------------------|	(guitar2)
G|----------------------------|
D|-5~~~~8~~~~13~~~~12~~~~~10~-|
A|----------------------------|

d|---------------------------------------------|
a|---------------------------------------------|
F|-9-9-9-9-12-12-12-12-17-17-17-19-16-16-16-14-|
C|-7-7-7-7-10-10-10-10-15-15-15-17-14-14-14-12-|	(guitar1)
G|---------------------------------------------|
D|---------------------------------------------|
A|---------------------------------------------|

d|----------------------------------------------------|
a|----------------------------------------------------|
F|----------------------------------------------------|
C|----------------------------------------------------|	(guitar2)
G|----------------------------------------------------|
D|-55555555888888881313131313131313121212121212121210-|
A|----------------------------------------------------|

Fill1:(in verse)
d|----------|
a|----------|
F|-14-14~~--|
C|----------|
G|----------|
D|----------|
A|----------|

Fill2:(in verse)
d|--------------------------------------------------------|
a|--------------------------------------------------------|
F|--------------------------------------------------------|
C|-14~/15-14-15--14-12-10-9~~--14~/15-14-15--14-12-10-9~~-|
G|--------------------------------------------------------|
D|--------------------------------------------------------|
A|--------------------------------------------------------|

Chorus:
(guitar1)
d|---------------------------|
a|---------------------------|
F|---------------------------|
C|--------------10~~~~-9~~~~-|	(Guitar1)
G|-7~~~~-10~~~~-10~~~~-9~~~~-|
D|-7~~~~-10~~~~- 8~~~~-7~~~~-|
A|-5~~~~- 8~~~~--------------|

(guitar2)
d|---------------------------------|
a|---------------------------------|
F|---------------------------------|
C|---------------------------------|	(guitar2)
G|---------------------------------|
D|-77-77-77-7\\\\\-77-77-77-7\\\\\-|
A|-55-55-55-5\\\\\-55-55-55-5\\\\\-|
   .. .. .. .      .. .. .. .       .palm mute

d|-----------------------------|
a|-----------------------------|
F|-----------------------------|
C|-----------------------------|	(guitar2)
G|-----------------------------|
D|-77-77-77-7-7-77-7-7-7~~-7-77|
A|-55-55-55-5-5-55-5-5-5~~-5-55|
   .. .. ..     .  .       .    .palm mute

(guitar3)
d|-----------------------------------|
a|-1717171717171717-1515151515151515-|
F|-----------------------------------|
C|-----------------------------------|	(guitar3)
G|-----------------------------------|
D|-----------------------------------|
A|-----------------------------------|

d|-----------------------------------|
a|-1717171717171717-1212121313121010-|
F|-----------------------------------|
C|-----------------------------------|	(guitar3)
G|-----------------------------------|
D|-----------------------------------|
A|-----------------------------------|

Bridge1:(solo)
d|------------------------------------------------------|
a|------------------------------------------------------|
F|----------------------------------21~~----------------|
C|-21^(22)'2119~~-21^(22)211922~24~~-----19~~~~~-17-19~-|
G|------------------------------------------------------|
D|------------------------------------------------------|
A|------------------------------------------------------|

Bridge2:
d|---------------------------------|
a|---------------------------------|
F|---------------------------------|
C|---------------------------------|
G|---------------------------------|
D|-77-77-77-7\\\\\-77-77-77-7\\\\\-|
A|-55-55-55-5\\\\\-55-55-55-5\\\\\-|
   .. .. .. .      .. .. .. .       .palm mute

Chorus:
(guitar1)
d|---------------------------------|
a|---------------------------------|
F|---------------------------------|
C|---------------------------------|	(guitar1)
G|---------------------------------|
D|-77-77-77-7\\\\\-77-77-77-7\\\\\-|
A|-55-55-55-5\\\\\-55-55-55-5\\\\\-|
   .. .. .. .      .. .. .. .       .palm mute

d|-----------------------------|
a|-----------------------------|
F|-----------------------------|
C|-----------------------------|	(guitar1)
G|-----------------------------|
D|-77-77-77-7-7-77-7-7-7~~-7-77|
A|-55-55-55-5-5-55-5-5-5~~-5-55|
   .. .. ..     .  .       .    .palm mute

(guitar2; or maybe violin)
d|------------------------------------------|
a|------------------------------------------|
F|-14~~~~~~16~17~~~21~14~~~~17~~12~~~~~~~9~-|
C|------------------------------------------|	(guitar2)
G|------------------------------------------|
D|------------------------------------------|
A|------------------------------------------|

d|------------------------------------------|
a|------------------------------------------|
F|-14~~-91412~~~~-1412----------------------|
C|--------------------1412~~~~~(14)~~15~17~-|	(guitar2)
G|------------------------------------------|
D|------------------------------------------|
A|------------------------------------------|

            
            
Suggest correction
Creating personal tab
Creating personal tab
You can edit any tab online and save it as your Personal.

You can edit, replace or remove any tab part or add personal notes – all changes will be seen only by you.

Personal tabs can be accessed anytime from any device, even offline.
Learn more »
comments
print report bad tab
2 comments total.
0 reply
LIMPed 10 Nov 28, 2007 07:11 AM

thank you! great tab!

0 reply
Cliptose93 10 Jan 28, 2011 05:34 PM

Great Tab, and great song

guest
You may want to rate the tab now too:
select rating
Wanna post a correction for this tab? Suggest correction