Oops, an error
Loading. Please wait.

Korn Tab

version 2
version 2

Album

by Korn
2,466 views 3 this week
1 commentread comment
1 2 3 4 5
please rate
add to favorites
launch autoscroll
font size
0
reset
how to read this tab
guitar tuner
Tab Pro tools
  • play this tab
  • loop segment
  • change instrument
  • show fretboard
  • metronome
×
Best way to learn
"Korn"
Autoscroll
slow
fast
+/-
esc
set tempo
stop
Contributor
KORN
1.Blind
2.Ball Tongue
3.Need To
4.Clown
5.Divine
6.Faget
7.Shoots And Ladders
8.Predictable
9.Fake
10.Lies
11.Helmet In The Bush
12.Daddy


1.Blind

E Tuning Version

Intro: (Flange/Light Distortion)                                     	
E|----6-6-6-6--|           
B|----5-5-5-5--|           
G|----3-3-3-3--|  Repeat 4 Times
D|-------------|    Then....
A|-------------|
E|-------------|

Distortion (.)
Clean (with Flange/Light Distorion) (==)
     ========   .........    =======      =======  .........	
E|----6-6-6-6----------------6-6-6-6------6-6-6-6-------------|        
B|----5-5-5-5----------------5-5-5-5------5-5-5-5-------------|    
G|----3-3-3-3----------------3-3-3-3------3-3-3-3-------------|  
D|---------------10----10----------------------------10---10--|
A|----------------9-----9-----------------------------9----9--|
E|--------------0----0------------------------------0---0-----|

Then....
(Distortion On)
E|---------------------6-6-6-6----|        
B|---------------------5-5-5-5----|    
G|---------------------3-3-3-3----|  
D|--------------------------------|
A|--------------------------------|
E|---0-2-0-3-0-2-0-3--------------|

ARE YOU READY.........|
(Heavy Distortion)
E|-----------------------------|        
B|-----------------------------|    
G|-----------------------------|  
D|--------------------3-3-3-3--|
A|-----4---5---4---5--1-1-1-1--|
E|---0-2-0-3-0-2-0-3-----------|

Fill:
E|-----------------------------|        
B|-----------------------------|    
G|-----------------------------|  
D|-------------------3-3-3-3---|
A|--------5---4---5--1-1-1-1---|
E|-0-0-0--3-0-2-0-3------------|

Verse:
LEt Verse Notes Ring
E|--------------------|---------------------|        
B|--------------------|---------------------|
G|--------------------|-----------------8---|  
D|--2~~~~-3~~~--2~~~--|-----------------6---|
A|--0~~~~-1~~~--0~~~--|--7-7/8\7--7\8/7-----|
E|--------------------|--5-5/6\5--5\6/5-----|

Bridge: (Distortion Still On)  Korn uses a phaser here live.
E|----6-6-6-6--0~---6-6-6-6--|           
B|----5-5-5-5--0~---5-5-5-5--|           
G|----3-3-3-3--0~---3-3-3-3--|  
D|---------------------------|    
A|---------------------------|
E|---------------------------|

Drop D Version

There are only couple differences _ "Are you ready" part and 2nd part of verse

ARE YOU READY.........|
(Heavy Distortion)
E|------------------------------|        
B|------------------------------|    
G|------------------------------|  
D|---------------------3-3-3-3--|
A|---0-2-0-3-0-2-0-3---1-1-1-1--|
D|---0-2-0-3-0-2-0-3------------|


Verse:
LEt Verse Notes Ring
E|--------------------|---------------------|        
B|--------------------|---------------------|
G|--------------------|-----------------8---|  
D|--2~~~~-3~~~--2~~~--|-----------------6---|
A|--0~~~~-1~~~--0~~~--|--5-5/6\5--5\6/5-----|
D|--------------------|--5-5/6\5--5\6/5-----|

2.Ball Tongue

Tuning : 7 String Tuned Low to High (A D G C F a d)

Intro:(Guitar1 & Guitar2)
d|--------------------------|
a|--------------------------|
f|------------------10-9----|
c|------7\6---------10-9----|
g|-8\7--7\6--8\7-xx-8--7----|
D|-8\7--5\4--8\7-xx------xx-|
A|-6\5-------6\5-xx------00-|

Fill1:(Guitar1 & Guitar2 after bass part)
d|----------|
a|----------|
F|----------|
C|-10-----9-|
G|-10-----9-|
D|--8-----7-|
A|----XXX---|

Bridge1:(Guitar1 & Guitar2)
d|-------------------------|--------------------------|
a|-------------------------|--------------------------|
f|-------------------------|------------------10-9----|
c|------7\6-------7\6------|------7\6---------10-9----|
g|-8\7--7\6--8\7--7\6--8\7-|-8\7--7\6--8\7-xx-8--7----|
D|-8\7--5\4--8\7--5\4--8\7-|-8\7--5\4--8\7-xx------xx-|
A|-6\5-------6\5-------6\5-|-6\5-------6\5-xx------00-|

Pre-Verse1:(Guitar1)
d|-12----14--17-|
a|--------------|
F|--------------|
C|--------------|	
G|--------------|
D|--------------|
A|--------------|

Verse:(Guitar1)
d|-19/^----^\19----19/^----^\19-|
a|------------------------------|
F|------------------------------|
C|------------------------------|
G|------------------------------|
D|------------------------------|
A|------------------------------|

Chorus:
d|-----------------|
a|-----------------|
F|-----------------|
C|-----------------|	(Guitar1)
G|-4--4--4-4-44-55-|
D|-4--4--4-4-44-55-|
A|-2--2--2-2-22-33-|

d|-------------------------------------|
a|-------------------------------------|
F|-------------------------------------|
C|-88888888-66666666----------6---9----|	(Guitar2)
G|-66666666-44444444-77777777-4-9-7----|
D|-------------------55555555---7------|
A|-------------------------------------|

Pre-Verse2:(Guitar1)
d|-21--------21-|
a|--------------|
F|--------------|
C|--------------|	
G|--------------|
D|--------------|
A|--------------|

Verse:(Guitar1)
d|-19/^----^\19----19/^----^\19-|
a|------------------------------|
F|------------------------------|
C|------------------------------|
G|------------------------------|
D|------------------------------|
A|------------------------------|

Chorus:
d|-----------------|
a|-----------------|
F|-----------------|
C|-----------------|	(Guitar1)
G|-4--4--4-4-44-55-|
D|-4--4--4-4-44-55-|
A|-2--2--2-2-22-33-|

d|-------------------------------------|
a|-------------------------------------|
F|-------------------------------------|
C|-88888888-66666666----------6---9----|	(Guitar2)
G|-66666666-44444444-77777777-4-9-7----|
D|-------------------55555555---7------|
A|-------------------------------------|

Fill2:
d|------------------|
a|-14^~~~~~~~~~~~~~~|
F|------------------|
C|------------------|	(Guitar1)
G|------------------|
D|------------------|
A|------------------|

d|------------------|
a|---------10^~~~~~~|
F|------------------|
C|------------------|	(Guitar2)
G|------------------|
D|------------------|
A|------------------|

Bridge1:(Guitar1 & Guitar2)
d|-------------------------|--------------------------|
a|-------------------------|--------------------------|
f|-------------------------|------------------10-9----|
c|------7\6-------7\6------|------7\6---------10-9----|
g|-8\7--7\6--8\7--7\6--8\7-|-8\7--7\6--8\7-xx-8--7----|
D|-8\7--5\4--8\7--5\4--8\7-|-8\7--5\4--8\7-xx------xx-|
A|-6\5-------6\5-------6\5-|-6\5-------6\5-xx------00-|

Bridge2:
d|------------------------|
a|-21^----------------21^-|
F|------------------------|
C|------------------------|	(Guitar1 with effect)
G|------------------------|
D|------------------------|
A|------------------------|

d|------------------------|
a|------------------------|
F|-------19----19---------|
C|----------21----21------|	(Guitar2)
G|------------------------|
D|------------------------|
A|------------------------|

Bridge1:(Guitar1 & Guitar2)
d|-------------------------|--------------------------|
a|-------------------------|--------------------------|
f|-------------------------|------------------10-9----|
c|------7\6-------7\6------|------7\6---------10-9----|
g|-8\7--7\6--8\7--7\6--8\7-|-8\7--7\6--8\7-xx-8--7----|
D|-8\7--5\4--8\7--5\4--8\7-|-8\7--5\4--8\7-xx------xx-|
A|-6\5-------6\5-------6\5-|-6\5-------6\5-xx------00-|

Fill3:(Guitar2)
d|-----------------------------------------|
a|-----------------------------------------|
f|-----------------------------------------|
c|-----------------------------------------|
g|-6~~~~~~~~4~~~~~~~~---------4---7~~~~~~~~|
D|-------------------5~~~~~~~~--7----------|
A|-----------------------------------------|

Chorus:
d|-----------------|
a|-----------------|
F|-----------------|
C|-----------------|	(Guitar1)
G|-4--4--4-4-44-55-|
D|-4--4--4-4-44-55-|
A|-2--2--2-2-22-33-|

d|-------------------------------------|
a|-------------------------------------|
F|-------------------------------------|
C|-88888888-66666666----------6---9----|	(Guitar2)
G|-66666666-44444444-77777777-4-9-7----|
D|-------------------55555555---7------|
A|-------------------------------------|

Fill4:(Guitar1)
d|-----------------|
a|-----------------|
F|-----------------|
C|-----------------|	
G|-4--4--4-4-44-55-|
D|-4--4--4-4-44-55-|
A|-2--2--2-2-22-33-|

Chorus:
d|-----------------|
a|-----------------|
F|-----------------|
C|-----------------|	(Guitar1)
G|-4--4--4-4-44-55-|
D|-4--4--4-4-44-55-|
A|-2--2--2-2-22-33-|

d|-------------------------------------|
a|-------------------------------------|
F|-------------------------------------|
C|-88888888-66666666----------6---9----|	(Guitar2)
G|-66666666-44444444-77777777-4-9-7----|
D|-------------------55555555---7------|
A|-------------------------------------|

Fill4:(Guitar1)
d|-----------------|
a|-----------------|
F|-----------------|
C|-----------------|	
G|-4--4--4-4-44-55-|
D|-4--4--4-4-44-55-|
A|-2--2--2-2-22-33-|

Outro:
d|-----------------|
a|-----------------|
F|-----------------|
C|-----------------|	(Guitar1)
G|-4--4--4-4-44-55-|
D|-4--4--4-4-44-55-|
A|-2--2--2-2-22-33-|

d|-------------------------------------|
a|-------------------------------------|
F|-------------------------------------|
C|-88888888-66666666----------6---9----|	(Guitar2)
G|-66666666-44444444-77777777-4-9-7----|
D|-------------------55555555---7------|
A|-------------------------------------|

3.Need To

Intro     x4
D|---------|
A|---------|
F|---------|
C|---------|
G|---------|
D|-8^--8^--|
A|---0---0-|

Main      x8
D|---------|
A|---------|
F|-11--11--|		 
C|-10--10--|		 
G|-9---9---|	
D|-8---8---|	
A|---0---0-|

Then                             x8
D|--------------------------------|
A|--------------------------------|
F|--------------------------------|
C|--161616161616---161616161616---|            
G|--151515151515---151515151515---| 
D|--141414141414---141414141414---|
A|---------------0--------------0-|

Verse     x8
D|---------|
A|---------|
F|---------|
C|---------|
G|---------|
D|-8^--8^--|
A|---0---0-|

Main      x4
D|---------|
A|---------|
F|-11--11--|		 
C|-10--10--|		 
G|-9---9---|	
D|-8---8---|	
A|---0---0-|

Then                             x4
D|--------------------------------|
A|--------------------------------|
F|--------------------------------|
C|--161616161616---161616161616---|            
G|--151515151515---151515151515---| 
D|--141414141414---141414141414---|
A|---------------0--------------0-|

Verse     x8
D|---------|
A|---------|
F|---------|
C|---------|
G|---------|
D|-8^--8^--|
A|---0---0-|

Main      x4
D|---------|
A|---------|
F|-11--11--|		 
C|-10--10--|		 
G|-9---9---|	
D|-8---8---|	
A|---0---0-|

Interlude        x8  Head     x8
D|----------------|  |---------|
A|----------------|  |-12//--9-| // = tremolo pick 
F|----------------|  |---//----|
C|----------------|  |-9-//--7-|
G|-2-------5-4--3-|  |---------|
D|-0---2-3-3-2--1-|  |---------|
A|-----0-1--------|  |---------|

Bridge          x3
D|---------------|
A|---------------|
F|---------------|
C|---------------|
G|-2~~~~---5-4-3-|
D|-0~~~~---3-2-1-|
A|---------------|

Fill                 x2              
D|--------------------|
A|--------------------|
F|--------------------|
C|--------------------|
G|-2------1-2---5-4-3-|
D|-0-321-0------3-2-1-|
A|--------------------|

Main      x4
D|---------|
A|---------|
F|-11--11--|		 
C|-10--10--|		 
G|-9---9---|	
D|-8---8---|	
A|---0---0-|

Then                               x4
D|----------------------------------|
A|----------------------------------|
F|----------------------------------|
C|--17171515161616---161616161616---|            
G|--16161414151515---151515151515---| 
D|--15151313141414---141414141414---|
A|-----------------0--------------0-|

Interlude        x8
D|----------------|
A|----------------|
F|----------------|
C|----------------|
G|-2-------5-4--3-|
D|-0---2-3-3-2--1-|
A|-----0-1--------|

Main      x8
D|---------|
A|---------|
F|-11--11--|		 
C|-10--10--|		 
G|-9---9---|	
D|-8---8---|	
A|---0---0-|

4.Clown

Intro                                x1
D|------------------------------------| 
A|------------------------------------|
F|-------4^------3^------3^------3~~^-|
C|------------------------------------|
G|------------------------------------|
D|--0000----0000----0000----0000------| 
A|--0000----0000----0000----0000------|

Interlude - Head           x1
D|--------------------------|
A|--------------------------|
F|--------------------------|
C|--------------------------|
G|--------------------------|
D|-565454-565454-565454-564-|
A|-343232-343232-343232-342-|

Main - Head and Munky      x4                      x4
D|--------------------------|-----------------------|
A|--------------------------|-----------------------|
F|--------------------------|-----------------------|
C|--------------------------|-----------------------|
G|--------------------------|-----------------------|
D|-565454-565454-565454-564-|-5/6-4/5-5/6-4/5-5/6\4-|
A|-343232-343232-343232-342-|-3/4-2/3-3/4-2/3-3/4\2-|

Verse                                   x8
D|---------------------------------------|
A|---16------15------16------15-------14-|
F|-19---19-18---18-19---19-18---18-19-17-|
C|---------------------------------------|
G|---------------------------------------|
D|---------------------------------------|
A|---------------------------------------|

Chorus - Head           x8
D|-----------------------|
A|-----------------------|
F|-----------------------|
C|-----------------------|
G|-----------------------|
D|-2--22--22-6\555\444\3-|
A|-0--00--00-4\333\222\1-|

Chorus - Munky               x8
D|----------------------------|
A|----------------------------|
F|----------------------------|
C|----------------------------|
G|-----------13\121212\111\10-|
D|-2--22--22-11\101010\999\8--| 
A|-0--00--00------------------|

Intro                           x1
D|-------------------------------| 
A|-------------------------------|
F|-------4^------3^------3^------|
C|-------------------------------|
G|-------------------------------|
D|--0000----0000----0000----0000-| 
A|--0000----0000----0000----0000-|

Verse                                   x8
D|---------------------------------------|
A|---16------15------16------15-------14-|
F|-19---19-18---18-19---19-18---18-19-17-|
C|---------------------------------------|
G|---------------------------------------|
D|---------------------------------------|
A|---------------------------------------|

Chorus - Head           x8
D|-----------------------|
A|-----------------------|
F|-----------------------|
C|-----------------------|
G|-----------------------|
D|-2--22--22-6\555\444\3-|
A|-0--00--00-4\333\222\1-|

Chorus - Munky               x8
D|----------------------------|
A|----------------------------|
F|----------------------------|
C|----------------------------|
G|-----------13\121212\111\10-|
D|-2--22--22-11\101010\999\8--| 
A|-0--00--00------------------|

Interlude - Head
D|---------|    |-------|
A|---------|    | ------|
F|------5^-|    |-------|
C|---------| x7 |-------|
G|---------|    |-------|
D|-0-------|    |-2-3-4-|
A|-0-00----|    |-0-1-2-|

Interlude - Munky
D|------8^-|    |-------|
A|---------|    |-------|
F|---------|    |-------|
C|---------| x7 |-------|
G|---------|    |-------|
D|-0-------|    |-2-3-4-|
A|-0-00----|    |-0-1-2-|

Interlude - Head                 x2
D|--------------------------------|
A|--------------------------------|
F|------5^-----5^------5^---------|
C|--------------------------------|
G|--------------------------------|
D|-0--------------0-----------3-4-|
A|-0-00----000----0-00----000-1-2-|

Interlude - Munky                x2
D|------8^-----8^------8^---------|
A|--------------------------------|
F|--------------------------------|
C|--------------------------------|
G|--------------------------------|
D|-0--------------0-----------3-4-|
A|-0-00----000----0-00----000-1-2-|

Main - Head and Munky      x4                      x4
D|--------------------------|-----------------------|
A|--------------------------|-----------------------|
F|--------------------------|-----------------------|
C|--------------------------|-----------------------|
G|--------------------------|-----------------------|
D|-565454-565454-565454-564-|-5/6-4/5-5/6-4/5-5/6\4-|
A|-343232-343232-343232-342-|-3/4-2/3-3/4-2/3-3/4\2-|

Chorus - Head           x8
D|-----------------------|
A|-----------------------|
F|-----------------------|
C|-----------------------|
G|-----------------------|
D|-2--22--22-6\555\444\3-|
A|-0--00--00-4\333\222\1-|

Chorus - Munky               x8
D|----------------------------|
A|----------------------------|
F|----------------------------|
C|----------------------------|
G|-----------13\121212\111\10-|
D|-2--22--22-11\101010\999\8--| 
A|-0--00--00------------------|

Outro
D|-------------------------------------------------------|
A|-------------------------------------------------------|
F|-------------------------------------------------------|
C|-------------------------------------------------------|
G|-------------------------------------------------------|
D|-0000---0000---0000---0000---0000---0000---0000---0000-|
A|-0000---0000---0000---0000---0000---0000---0000---0000-|

5.Divine

tuning: A D G C F A D

PM= palm mute


Intro:               
D|---------------------------------|
A|---------------------------------|
F|---------------------------------|
C|-----16--16------16--16------16--|
G|-----15--15------15--15------15--|
D|-----14--14------14--14------14--|
A|-0-0-13--13--0-0-13--13--0-0-13--|
  |_PM_|     |_PM_|      |_PM_|

riff 1
part 1:                 
D|---------------------------------|
A|---------------------------------|
F|---------------------------------|
C|-----16--16------16--16------16--|
G|-----15--15------15--15------15--|
D|-----14--14------14--14------14--|
A|-0-0-13--13--0-0-13--13--0-0-13--|

part 2:
D|-----|
A|-----|
F|-----|
C|-4---|
G|-3---|
D|-2---|
A|-1---|

riff 2:
D|----------------------------------------------------------------------------------|
A|----------------------------------------------------------------------------------|
F|----------------------------------------------------------------------------------|
C|------------------------------------------------------------------------------16--|
G|------------------------------------------------------------------------------15--|
D|------------------------------------------------------------------------------14--|
A|-4-3-2--3-2-1--2-1-0--4-3-2--3-2-1--2-1-0--4-3-2--3-2-1--2-1-0--4-3-2--3-2-1--13--|
  |_______________________________________PM__________________________________|

riff 3
part 1:                
D|---------------------------|
A|---------------------------|
F|---------------------------|
C|---------------------------|
G|---------------------------|
D|-2-2--2-2--2-2--2-2--3--3--|
A|-0-0--0-0--0-0--0-0--1--1--|

part 2:
D|----------|
A|----------|
F|----------|
C|-16-------|
G|-15-------|
D|-14-------|
A|-13-------|

riff 4
part 1:
D|------------------------|
A|------------------------|
F|------------------------|
C|------------------------|
G|------------------------|
D|-3--3--2-2---2-2--------|
A|-1--1--0-0---0-0--------|

part 2:
D|---------------------------|
A|---------------------------|
F|---------------------------|
C|---------------------------|
G|---------------------------|
D|-3--3--2-2--2-2--2-2--2-2--|
A|-1--1--0-0--0-0--0-0--0-0--|

riff 5:
F|----------------------|
C|--------------16------|
G|--------------15------|
D|---------0-0--14------|
A|-0-0-2-2------13------|

outro:
D|--------------------------|
A|--------------------------|                           
F|--------------------------|  
C|---16--16----16--16----16-|  
G|---15--15----15--15----15-|   
D|---14--14----14--14----14-|  
A|-0-13--13--0-13--13--0-13-|

6.Faget

NOTE: Tune down 1 whole step A D G C F A D

Intro (Gtr. 1)
F|-------------------11-11-11-|
C|-------------------10-10-10-|
G|-------------------9--9--9--|
D|-----7-------------8--8--8--|
A|-0-0--0-00-00-0-------------|

Intro 2 (Gtr. 1)
A|--------------------12-12-12-|
F|--------------------11-11-11-|
C|--------------------10-10-10-|
G|---------------------9--9--9-|
D|-----------------------------|
A|-0-00-0-00-0-00--------------|

Fill (Gtr. 1)
A|-0-00-0-00-0-00--|

Fill 2 (Gtr. 2)
D|-7-8----7-8------|
A|------9-----8~~~-|

Intro 3/Chorus (Both Guitars)
F|------------------11-11-11-----------------------|
C|------------------10-10-10-----------------------|
G|-------------------9--9--9-----------------------|
D|-----7-------------8--8--8-----7----7-8--7-8-----|
A|-0-0--0-00-00-0----------0-0--0-00-----9----8~~~-|

Verse (Gtr. 1) (w/ dist.)
D|---------------------8-8-8-8-|
A|-0-0-0-0-00-00-0-----------|
  pm---------------|

Verse (Gtr. 2) (Clean)
D|-------------------------------7--|----------|--------0----|
A|--13--------11-------/4-----------|------6---|------0---2--|
F|---------------------------7------|--4-------|---10--------|
C|----------------------------------|----------|-9-----------|
				                     1st time    2nd time

Post-Chorus (Both Guitars) (�FAGET!!!..�)
F|-------------------------11-11-11-|
C|-------------------------10-10-10-|
G|-------------------------9--9--9--|
D|-7-------7---7----7------8--8--8--|
A|-0--0-0-0-0-0-0-0-0-0-------------|

Bridge 1 (Gtr. 1) (w/ light dist.) (�I�m just a pretty boy..�)
D|------7------8----8--|
A|--0000---000---00----|

Bridge 1 (Gtr. 2) - Pik scratches on low D string and gets really loud near end of Bridge

Bridge 2 (Both Guitars)
G|------9----10---10--|
D|-2222-7-222-8-22-8--|
A|-0000---000---00----|

Bridge 3 (Gtr. 1) (�I�m just a pretty boy I�m not suppose..�)
G|------4------4-5-4-|
D|--2---2-3----2-3-2-|
A|--0-----1----------|

Bridge 3 (Gtr. 2)
a|-12---13--12---15---12--8-|-8x-|--12--13--12-\-8--|

7.Shoots And Ladders

Intro       x8
D|-----------|
A|-----------|
F|-----------|
C|-----------|
G|-----------|
D|-33--33-33-|
A|-11--11-11-|

Pre-Verse (* = artifical harmonic)
D|-*2*-|
A|-----|
F|-----|
C|-----|
G|-----|
D|-----|
A|-----|

2nd Pre-verse (slowly bend up, and then bring it back down)
D|-----------------------|
A|-----------------------|
F|-0^~--000000--00000000-|
C|-5^~--555555--55555555-|
G|-----------------------|
D|-----------------------|
A|-----------------------|

Verse    x8
D|--------|
A|--------|
F|----0^~-|
C|----5^~-|
G|--------|
D|-5------|
A|-3------|

Chours - Head                    
D|--------------------------------|
A|--------------------------------|
F|--------------------------------|
C|--------------------------------|
G|--------------------------------|
D|5--5-7--6--6-5--5-7--6--5-5-4-3-|
A|3--3-5--4--4-3--3-5--4--3-3-2-1-|

Munky 
D|------------------------14-------14-----14-14-|
A|-15-15-15-15--15-15-15--15-15-15-15--15-15-15-|
F|--x--x--x--x---x--x--x---x--x--x--x---x--x--x-|
C|-12-12-12-12--12-12-12--12-12-12-12--12-12-12-|
G|----------------------------------------------|
D|----------------------------------------------|
A|----------------------------------------------|

D|-----------------------------------------|
A|-15-15-15-15--15--15--15-15-15--15-15-15-|
F|-----------------------------------------|
Cl-12-12-12-12--12--12--12-12-12--12-12-12-|
G|-----------------------------------------|
D|-----------------------------------------|
A|-----------------------------------------|

Verse    x8
D|--------|
A|--------|
F|----0^~-|
C|----5^~-|
G|--------|
D|-5------|
A|-3------|

Chours - Head                    
D|--------------------------------|
A|--------------------------------|
F|--------------------------------|
C|--------------------------------|
G|--------------------------------|
D|5--5-7--6--6-5--5-7--6--5-5-4-3-|
A|3--3-5--4--4-3--3-5--4--3-3-2-1-|

Munky
D|------------------------14-------14-----14-14-|
A|-15-15-15-15--15-15-15--15-15-15-15--15-15-15-|
F|--x--x--x--x---x--x--x---x--x--x--x---x--x--x-|
C|-12-12-12-12--12-12-12--12-12-12-12--12-12-12-|
G|----------------------------------------------|
D|----------------------------------------------|
A|----------------------------------------------|

D|-----------------------------------------|
A|-15-15-15-15--15--15--15-15-15--15-15-15-|
F|-----------------------------------------|
Cl-12-12-12-12--12--12--12-12-12--12-12-12-|
G|-----------------------------------------|
D|-----------------------------------------|
A|-----------------------------------------|

Bridge - Head         x8
D|-----43--------43----|
A|-333----43--33----43-|

Heavy Bridge          x8
D|---------------------|
A|---------------------|
F|---------------------|
C|---------------------|
G|-----65--------65----|
D|-555-43-65--55-43-65-|
A|-333----43--33----43-|

Interlude
D|---------------------|
A|---------------------|
F|---------------------|
C|---------------------|
G|-6--5--4--3--4--4--3-|
D|-6--5--4--3--4--4--3-|
A|-4--3--2--1--2--2--1-|

Verse    x8
D|--------|
A|--------|
F|----0^~-|
C|----5^~-|
G|--------|
D|-5------|
A|-3------|

Chours - Head                    
D|--------------------------------|
A|--------------------------------|
F|--------------------------------|
C|--------------------------------|
G|--------------------------------|
D|5--5-7--6--6-5--5-7--6--5-5-4-3-|
A|3--3-5--4--4-3--3-5--4--3-3-2-1-|

Munky
D|------------------------14-------14-----14-14-|
A|-15-15-15-15--15-15-15--15-15-15-15--15-15-15-|
F|--x--x--x--x---x--x--x---x--x--x--x---x--x--x-|
C|-12-12-12-12--12-12-12--12-12-12-12--12-12-12-|
G|----------------------------------------------|
D|----------------------------------------------|
A|----------------------------------------------|

D|-----------------------------------------|
A|-15-15-15-15--15--15--15-15-15--15-15-15-|
F|-----------------------------------------|
Cl-12-12-12-12--12--12--12-12-12--12-12-12-|
G|-----------------------------------------|
D|-----------------------------------------|
A|-----------------------------------------|

Outro
D|-10^~-|
A|-13^~-|
F|------|
C|------|
G|------|
D|------|
A|------|


8.Predictable

Riff 1
G||-------------------------------||	
D||-------2^1------------2^1------||	* Palm Mute on these notes
A||--0-00----0-2^3-0-2^3-----2^3--||	@ Not played when vocals come in
       **			  @	
Riff 2
G||-------4\3------------4\3------||
D||--2----2\1--4/5---4/5-2\1-4/5--||
A||--0-00----0-2/3-0-2/3-----2/3--||
	**
Fill 1
C||--------------------------16---||
G||-------4\3------------4\3-15---||	Tremolo Picking and Chorus/Flange
D||--2----2\1--4/5---4/5-2\1-14---||	used on 13-14-15-16 chord
A||--0-00----0-2/3-0-2/3-----13---||

Riff 3
G||---------------------------------------------||
D||--2-2---2---2-2---2---2-2---2---2-2---2-2----||   Rest on X's-listen to
A||--0-0-X-0---0-0-X-0---0-0-X-0---0-0-x-0--00--||   the album

Riff 4
C||------------------------------------------------------------------||
G||--10\9-----9\8-----8\7-----7\6------------------------------------||
D||---8\7-7-7-7\6-6-6-6\5-5-5-5\4-4---6\5-----5\4-----4\3-----3\2----||
A||-----------------------------------4\3-3-3-3\2-2-2-2\1-1-1-1^0-0--||

Riff 5 
G||-----------------------------------------------------------------3---||
D||--2-2----2-2----2-2---2----3-3------2-2----2-2----2-2---2----3-3-1---||
A||--0-0-X--0-0-X--0-0-X-0--0-1-1------0-0-X--0-0-X--0-0-X-0--0-1-1-1---||
Rest on X's--Listen to album for rhythm--

Riff 6
C||---------------------------3--2------||
G||--2--------5--4-4----5--3--1--0--3---||	Bass follows this pattern too
D||--0--2--3--3--2-2----3--1--------1---||
A||-----0--1----------------------------||

Riff 7
C||-----------3-4------||
G||--2--------1-2--3---||		Bass follows this pattern too
D||--0--2--3-------1---||
A||-----0--1-----------||

9.Fake

Tuning: 7 String Standard A one step down (A D G C F A D)

Intro/Chorus
|-----------------------|---------|
|-----------------------|---------|
|-----------------------|---------|
|-----------------------|---------|
|-----------------------|---------|
|--2/3/4-2-3-3-2-3-3-2--|-2-2/3/4-|
|--0/1/2-0-1-1-0-1-1-0--|-0-0/1/2-|
 (Repeat 6 Times)

Verse

 gtr.1
|-----0~-----0~---------|
|-----0~-----0~---------|
|--11-9---11-9----------|
|---------------9-------|
|-----------------------|
|-----------------------|
|-----------------------|
|gtr.2                  |
|-----------------------|
|-----0------0----------|
|--4--4---4--4----------|
|--x--x---x--x----------|
|--2--3---2--3--4-5-6---|
|-----------------------|
|-----------------------|

Bridge

|--------------------------------------------------|
|--------------------------------------------------|
|--------------------------------------------------|
|-----15----16-----15fb^15------15-----16----------|
|------x-----x------x------------x------x----------|
|-----13----14-----13fb^13------13-----14-----13hb^|
|---------------------------------------------12hb^|

|--0~--------------0~-------------|
|--0~--------------0~-------------|
|--0~--------------0~-------------|
|--0~-------9------0~-------9-----|
|--0~----7----8----0~----7----7---|
|--0~-8------------0~-8-----------|
|---------------------------------|

Bridge 2

|---------------------------|
|---------------------------|
|---------------------------|
|-------9-------------9-----|
|----7----7--------7-----7--|
|--7-------------8----------|
|---------------------------|

|--0~----------|
|--0~-------0--|
|--0~-------0--|
|--0~-------9--|
|--0~-------7--|
|--0~-------8--|
|--------------| (3 Times)
  Fake!!!

|--0~------------|
|--0~-------0((--|
|--0~-------0((--|
|--0~-------9((--|
|--0~-------7((--|
|--0~-------8((--|
|----------------| 
            *Slowly push your whammy bar down
Outro

|-----------------------|
|-----------------------|
|-----------------------|
|-----------------------|
|-----------------------|
|--2/3/4-2-3-3-2--3--2--|
|--0/1/2-0-1-1-0--1--0--|

10.Lies

Intro		         x4
D|----------------------------------|
A|----------------------------------|
F|----------------------------------|
C|----------------------------------|
G|----------------------------------|
D|-6\5-5\4-4\3-3~~--3/4-4\3-3\2-2-2-|
A|-4\3-3\2-2\1-1~~--1/2-2\1-1\0-0-0-|

Main riff                          x4
D|----------------------------------|
A|----------------------------------|
F|----------------------------------|
C|----------------------------------|
G|----------------------------------|
D|-2/5-5\4-4\3-3~~--3/4-4\3-3\2-2-2-|
A|-0/3-3\2-2\1-1~~--1/2-2\1-1\0-0-0-|

1st Verse                                                             x1
D|----------------------------------19//-24--19//-22--19//-24--19//-24-|
A|---------------------------------------------------------------------|
F|-{11}--/11-/12--/11-/11--/11-/12-------------------------------------|
C|---------------------------------------------------------------------|
G|---------------------------------------------------------------------|
D|---------------------------------------------------------------------|
A|---------------------------------------------------------------------|

Main riff                          x4
D|----------------------------------|
A|----------------------------------|
F|----------------------------------|
C|----------------------------------|
G|----------------------------------|
D|-2/5-5\4-4\3-3~~--3/4-4\3-3\2-2-2-|
A|-0/3-3\2-2\1-1~~--1/2-2\1-1\0-0-0-|

2nd Verse                            x1 
D|------------------------------------|
A|-------------------19//-24--19//-24-|
F|--/11-/12--/11-/11------------------|
C|------------------------------------|
G|------------------------------------|
D|------------------------------------|
A|------------------------------------|

Main riff                          x4
D|----------------------------------|
A|----------------------------------|
F|----------------------------------|
C|----------------------------------|
G|----------------------------------|
D|-2/5-5\4-4\3-3~~--3/4-4\3-3\2-2-2-|
A|-0/3-3\2-2\1-1~~--1/2-2\1-1\0-0-0-|

Bridge                 x4
D|----------------------|
A|-------3~~--------2~~-|	
F|-------2~~--------1~~-|	
C|-------4~~--------3~~-|		
G|-666-5------555-4-----|		 
D|-666-5------555-4-----|		
A|-444-3------333-2-----|

Interlude x16
D|----------|
A|----------|
F|----------|
C|----------|
G|----------|
D|-2---22-2-|		
A|-0---00-0-|

Intro	                      x4
D|----------------------------------|
A|----------------------------------|
F|----------------------------------|
C|----------------------------------|
G|----------------------------------|
D|-6\5-5\4-4\3-3~~--3/4-4\3-3\2-2-2-|
A|-4\3-3\2-2\1-1~~--1/2-2\1-1\0-0-0-|

Main riff                          x4
D|----------------------------------|
A|----------------------------------|
F|----------------------------------|
C|----------------------------------|
G|----------------------------------|
D|-2/5-5\4-4\3-3~~--3/4-4\3-3\2-2-2-|
A|-0/3-3\2-2\1-1~~--1/2-2\1-1\0-0-0-|

Outro                    	         x4
D|----------------------------------|
A|----------------------------------|
F|----------------------------------|
C|----------------------------------|
G|----------------------------------|
D|-6\5-5\4-4\3-3~~--3/4-4\3-3\2-2-2-|
A|-4\3-3\2-2\1-1~~--1/2-2\1-1\0-0-0-|

11.Helmet In The Bush

Intro - Munky         x2  
D|---------------------|  
A|---------------------|  
F|---------------------|  
C|---------------------|  
G|---------------------|  
D|---------------------|  
A|-0000-2321-0000-1210-|  

Main Riff - Munky     x4  Main Riff - Head           x4
D|---------------------|  |---------------------------|
A|---------------------|  |---------------------------|
F|---------------------|  |---------------------------|
C|---------------------|  |---------------------------|
G|---------------------|  |------11121110-----1011109-|
D|------4543------3432-|  |------9-109-8------8-9-8-7-|
A|-0000-2321-0000-1210-|  |-0000----------0000--------|

Pre-Chorus		x4
D|-------------------12-12-|
A|-12^---12^-12^-12^-------|
F|-------------------------|
C|-------------------------|
G|-------------------------|
D|-------------------------|
A|-------------------------|

Verse              x8
D|------------------|
A|------------------|
F|------------------|
C|------13----------|
G|------12----------|
D|------11----------|
A|-0000-10--00-00-0-|

Pre-Chorus       	x8
D|-------------------12-12-|
A|-12^---12^-12^-12^-------|
F|-------------------------|
C|-------------------------|
G|-------------------------|
D|-------------------------|
A|-------------------------|

Main Riff - Munky     x4  Main Riff - Head           x4
D|---------------------|  |---------------------------|
A|---------------------|  |---------------------------|
F|---------------------|  |---------------------------|
C|---------------------|  |---------------------------|
G|---------------------|  |------11121110-----1011109-|
D|------4543------3432-|  |------9-109-8------8-9-8-7-|
A|-0000-2321-0000-1210-|  |-0000----------0000--------|

Verse              x8
D|------------------|
A|------------------|
F|------------------|
C|------13----------|
G|------12----------|
D|------11----------|
A|-0000-10--00-00-0-|

Pre-Chorus       	x8
D|-------------------12-12-|
A|-12^---12^-12^-12^-------|
F|-------------------------|
C|-------------------------|
G|-------------------------|
D|-------------------------|
A|-------------------------|

Main Riff - Munky     x4  Main Riff - Head           x4
D|---------------------|  |---------------------------|
A|---------------------|  |---------------------------|
F|---------------------|  |---------------------------|
C|---------------------|  |---------------------------|
G|---------------------|  |------11121110-----1011109-|
D|------4543------3432-|  |------9-109-8------8-9-8-7-|
A|-0000-2321-0000-1210-|  |-0000----------0000--------|

Interlude                               x2
D|-17^-17^---17^-17^---17^-17^---17^-17^-|
A|---------------------------------------|
F|---------------------------------------|
C|---------------------------------------|
G|---------------------------------------|
D|---------------------------------------|
A|---------------------------------------|

Bridge               x8              
D|------17^-------17^-|
A|--------------------|
F|--------------------|
C|--------------------|
G|--------------------|
D|--------------------|
A|-00000----0000------|

Heavy Bridge         x4           
D|------17^-------17^-|
A|--------------------|
F|--------------------|
C|--------------------|
G|--------------------|
D|-22222----2222------|
A|-00000----0000------|

Main Riff - Munky     x4  Main Riff - Head           x4
D|---------------------|  |---------------------------|
A|---------------------|  |---------------------------|
F|---------------------|  |---------------------------|
C|---------------------|  |---------------------------|
G|---------------------|  |------11121110-----1011109-|
D|------4543------3432-|  |------9-109-8------8-9-8-7-|
A|-0000-2321-0000-1210-|  |-0000----------0000--------|

Outro                          x4
D|------------------------------|
A|------------------------------|
F|------------------------------|
C|------------------------------|
G|-------9/10\9\8-------8/9\8\7-|
D|-------9/10\9\8-------8/9\8\7-|
A|-00--0----------00--0---------|

12.Daddy

Verse Riff-Munky
d||-------------------||
a||-----13------12----||
F||--16------15-------||
C||-------------------||

Chorus
C||----------------------------------------||
G||--4/5-4----4/5-4----4/5-3----3/4-3------||  * this chord is a 1/3/3
D||--4/5-4----4/5-4----4/5-3----3/4-3------||    chord on the repeat
A||--2/3-2----2/3-2----2/3-1----1/2-1------||
     *
Fill 1
F||-----------------||
C||--0--------------|| "It's alright"
G||--4-5------------||
D||-----------------||

Bridge
d||----------------13^--------------------|| 
comments
We did not receive enough feedback on this tab! Please rate:
print report bad tab
1 2 3 4 5
1 comment total.
0 reply
MTS wrote on December 27 2005, 05:25 am

hmm.I find it hard to believe that you've tabbed out 4360 or so tabs..How much time do u have man?

I want to post or [tab]
guest
You may want to rate the tab now too:
select rating
Please do not post tabs as comments. Select "correction" instead!