Oops, an error
Loading. Please wait.

Life Is Peachy Bass Tab

by Korn
2,070 views 6 this week
no commentswrite comment
1 2 3 4 5
worth learning
x 4
add to favorites
launch autoscroll
font size
0
reset
guitar tuner
Tab Pro tools
  • play this tab
  • loop segment
  • change instrument
  • show fretboard
  • metronome
Autoscroll
slow
fast
+/-
esc
set tempo
stop
Contributor
Band- Korn
Album- Life Is Peachy

1.TWIST

Verse:

G-----------------------------------------------------------------------------|
D-----------------------------------------------------------------------------|
A-----------------------------------------------------------------------------|
E-----000-0000-0-0000-000-000-0-----------------------------------------------|

Play that until the chorus

Then play this on the first chorus:

Chorus 1

G-------------------------------------------------------------------------|
D-------------------------------------------------------------------------|
A-------------------------------------------------------------------------|
E--------0-0-0------0-0-0-------------------------------------------------|


Then play this twice or once

Chorus 2/ solo( on live version)

G----------------------------------------------------------------------|
D----------------------------------------------------------------------|
A----------------------------------------------------------------------|
E-0-0-0-----00-0-0-0-00-0-0--------------------------------------------|
2.CHI

Little part.... just before jon says "PAIN"
A|--0---|

Intro (slap distortion)
F|---------------|
C|---------------|
G|---------------| Listen song for timing
D|---------------|
A|--2/3\2-1-00-1-|

Pre-verse I (slap distortion)
F|---------------|
C|---------------|
G|---------------|x1
D|---------------|
A|-2/3-33-2-11-X-|

F|-----------------|
C|-----------------|
G|-----------------|x3
D|-----------------|
A|-1-2/3-33-2-11-X-|

Verse (Im not sure of this riff, but it sounds good)
F|----------------|--------------------|
C|----------------|--------------------|
G|----------------|--------------------| (slap distortion)
D|----------------|--------------------|
A|--3-0-1-0--2-0--|--3-0-1-0-2222/111--|

F|----------------|----------------|
C|----------------|----------------|
G|----------------|----------------| /// A slow slide
D|----------------|----------------|
A|--3-0-1-0--2-0--|--3-0-1-0-2///1-|

Chorus (slap distortion)
F|-----------------|
C|-----------------|
G|-----------------| Listen song for timing
D|-----------------|
A|-2/3-33-2-11-0-1-|

Pre-verse II (slap distortion)
F|---------------|
C|---------------|
G|---------------|x1
D|---------------|
A|-2/3-33-2-11-X-|

F|-----------------|
C|-----------------|
G|-----------------|x2
D|-----------------|
A|-1-2/3-33-2-11-X-|

F|-----------------|
C|-----------------|
G|-----------------|x1
D|-----------------|
A|-2-3/4-44-3-22-X-|

Bridge I (fat distortion)
F|---------------------|
C|---------------------|
G|--14---13------------| Each second time play this with
D|-----14---13---------| other timing, listen song and you
A|-------------13-12~~-| will understand.

Bridge II (Where jon says "CANT YOU FEEL THIS PAIN!!!!??"
F|-----------------|
C|-----------------|
G|-----------------| (slap distortion)
D|-----------------|
A|--3---2-22-1-1---|

Bridge III (After bridge II) (slap distortion)
F|--------|
C|--------|
G|--------| When Jon start screaming for a while
D|--------|
A|--3-3/1-|

Bridge IV 1x After Bridge III (slap distortion)
F|----------|
C|----------|
G|----------|
D|----------|
A|-2-22-1-1-|

Bridge III (After bridge IV) (slap distortion)
F|--------|
C|--------|
G|--------| When Jon start screaming for a while (Again)
D|--------|
A|--3-3/1-|

Then Bridge IV 1x After Bridge III
F|----------|
C|----------|
G|----------| (slap distortion)
D|----------|
A|-2-22-1-1-|

After all Bridges (fat distortion)
F|-----------------------|
C|-----------------------|
G|--14---13--------------|
D|-----14---13-----------|
A|-------------13-12~~\1-|

F|-------------|
C|-------------|
G|-------------| Listen song for timing.
D|--5-0--------|
A|-------4-3-2-|

After fade out repeat Chorus x4
Then Intro x8

Outro (Where Jon says "PAIN") until end of the song.
F|------------|
C|------------|
G|------------| (slap distortion)
D|------------|
A|--4--2-2/3--|

3.LOST

Tunning: A,D,G,C,F

Intro
F|---------|
C|---------|
G|---------| (fat distortion)
D|---------|
A|-2--22-3-|

Verse (slap distortion)
F|----------------------------------|
C|----------------------------------|
G|----------------------------------| Listen song for timing
D|----------------------------------|
A|-2-2-2-2-2-2-2-2-1-0-010-2-1-0-01-|

Chorus: Same as Intro

Bridge 1:32 (When drums comes in)
F|---------------|
C|---------------|
G|---------------| Listen song for timing
D|---------------|
A|-22-0-12-00-21-|

Lil solo
F|-------------|
C|-------------|
G|-------------| (slap distortion)
D|-5-4-3-------|
A|-------5-4-3-|

Outro: Same as Intro

4.SWALLOW

 verse
G--------------|---------------------3h4h5-------|
D--------------|--------------6-4----------3h5h6-|
A--------------|------------------6--------------|
D--------------|-5------4------------------------|
A-1------1---1-|-----------3---------------------|

G----------------|----------------------------|
D----------------|----------------------------|
A----------------|----------------------------|
D----------------|----------------------------|
A-3--------3---3-|-0-0---0-0-0----0-0---0-0-0-|

G----------------|
D----------------|
A----------------|
D----------------|
A-2--------2---2-|

5.PORNO CREEP

F:----------------|--------------------7--------|
C:-------------5--|-------------5----7-----5----|
G:-------5--7-----|-------5--7---------------5--|
D:---5/7----------|---5/7-----------------------|
A:-5--------------|-5---------------------------|

F:----------------|---------------------------------|---------------|
C:-------------5--|---------------------------------|-------------5-|
G:-------5--7-----|-------5--7------7--5----------5-|-------5--7----|
D:---5/7----------|---5/7----------------7----5/7---|---5/7---------|
A:-5--------------|-5------------5------------------|-5-------------|

F:-------------------7-------|------------------------|-----------------------------|
C:-------------5---7----5----|--------------5-----(5)-|-----------------------------|
G:-------5--7-------------5--|-------5--7-------------|----------------------5/7-5--|
D:---5/7---------------------|---5/7------------------|-------3-----5-5/6/7-------5-|
A:-5-------------------------|-5----------------------|-3/4/5-----------------------|

F:----------------|-------------------7-------|----------------|--------------------|
C:-------------5--|-------------5---7----5----|-------------5--|--------------------|
G:--------5-7-----|--------5-7-------------5--|--------5-7-----|-5/7----------------|
D:---5/7----------|---5/7---------------------|---5/7----------|-----5/7------------|
A:-5--------------|-5-------------------------|-5--------------|----------3/5--5\6--|

F:----------------|-----------------7-------|---------------|
C:-------------5--|-----------5---7----5----|------------5--|
G:--------5-7-----|-------5-7------------5--|--------5-7----|
D:---5/7----------|---5/7-------------------|---5/7---------|
A:-5--------------|-5-----------------------|-5-------------|

F:-9-7-------------------------------------|----------------|----------------7------|
C:------9-8-7------------------------------|-------------5--|-----------5--7----5---|
G:-----------------------------------------|--------5-7-----|-------5-7----------5--|
D:--------------------3/4/5--1/4-bend-5----|---5/7----------|---5/7-----------------|
A:--------------3/4/5----------------------|-5--------------|-5---------------------|

F:--------------|---------------------------|--------------|
C:-----------5--|-------9--8--7--6--5--4--3-|-----------5--|
G:-------5-7----|-7/8/9---------------------|-------5-7----|
D:---5/7--------|---------------------------|---5/7--------|
A:-5------------|---------------------------|-5------------|

F:----------------7-----|--------------|----------------------------------------|
C:-----------5--7---5---|-----------5--|----------------------------------------|
G:-------5-7----------5-|-------5-7----|-------5-7------7-5--------5/7-----5/7--|
D:---5/7----------------|---5/7--------|---5/7--------------7--5/7-----5/7------|
A:-5--------------------|-5------------|-5-----------5--------------------------|

F:--------------|----------------7-----|--------------|--------------|
C:-----------5--|-----------5---7--5---|-----------5--|-----------5--|
G:-------5-7----|-------5-7----------5-|-------5-7----|-------5-7----|
D:---5/7--------|---5/7----------------|---5/7--------|---5/7--------|
A:-5------------|-5--------------------|-5------------|-5------------|

F:-------------------------------|-------------9--|
C:-------------------------------|--------7/9-----|
G:----------------5/6/7---7/8/9--|----------------|
D:-3/4/5---5/6/7-----------------|-0--------------|
A:-------------------------------|----------------|

6.GOOD GOD

5-string bass tuned down 1 whole step
(a,d,g,c,g)

f-----------------------------|
c-----------------------------|
g-----------------------------| X8
d-----------------------------|
a-1-0--x--0-0--0-0-1-0--------|

f-----------------------------|
c-----------------------------|
g-----------------------------|
d-----------------------------|
a-1-0--1-2--2-3-3-2-----------|

f-------------------------------|
c-------------------------------|
g-------------------------------|
d-------------------------------|
a-1-0--2-3-2--1-0--1-2--2-3-3-2-|
f-------------------------------|
c-------------------------------|
g-------------------------------|
d-------------------------------|
a-1-0--0-3-2-1------------------|

f-----------------------------|
c-----------------------------|
g-----------------------------| X8
d-----------------------------|
a-1-0--1-2--3-3-4-3-1---------|

f-----------------------------|
c-----------------------------|
g-----------------------------| X4
d-----------------------------|
a-1-0--x--0-0--0-0-1-0--------|

f-----------------------------|
c-----------------------------|
g-----------------------------| X8
d-7--7-7-----------5----------|
a--------6--4--4-4---2--------|

7.MR.ROGERS

Intro I
F|-----|    |-----|
C|-----|    |-----|
G|-----| x3 |-----| x1
D|-----|    |-----|
A|-000-|    |-0-0-|

Intro II
F|------------------------|
C|------------------------|
G|------6\5-3\2-----------|
D|------------------------|
A|-00-0---------000-5/666-|

Pre - verse
|--------|
|--------|
|--------| x1 Play this after Intro II
|--------|
|-0~~~~~-|

Verse I (Listen song for timin)
F|---------------------|
C|---------------------|
G|---------------------|
D|---------------------|
A|-00000-77776666-6767-|

Pre - Chorus: Same as Intro II

Chorus (Listen song for timin)
F|-------------------------------|
C|-------------------------------|
G|-------------------------------|
D|-------------------------------|
A|-1-00-1-00-1-0-5/6-55-6-55-6-5-|

Verse II (Listen song for timin)
F|---------------------|
C|---------------------|
G|---------------------| x1
D|---------------------|
A|-00000-000-6666-6767-|

F|------------------------|
C|------------------------|
G|------------------------| x1
D|------------------------|
A|-00000-00-77776666-6767-|

F|---------------------|
C|---------------------|
G|---------------------| x2
D|---------------------|
A|-00000-77776666-6767-|

After 2nd chorus repeat Pre - verse

Bridge I (Listen song for timin)
F|---------------|
C|---------------|
G|---------------|
D|---------------|
A|-000-0000-000--|

Bridge II (Listen song for timin)
F|------------------|
C|------------------|
G|------------------|
D|------------------|
A|-00-0-00-00-5/666-|

After bridge II play chorus 6 times and then play outro til end.

Outro
F|---------------|
C|---------------|
G|---------------|
D|---------------|
A|-1-00-1-00-1-0-|

8.K@#0%!

5-string bass in dropped A tuning (A,E,A,D,G)

Intro:

G|---------------------------------|
D|---------------------------------|
A|--2/1--1--0--0----0--1--0--0--0--|
E|---------------------------------|
A|---------------------------------|

Verse:

G|-----------------|
D|-----------------|
A|--0--0--0--0--0--|
E|-----------------|
A|-----------------|

Pre-chorus:

G|------------------------------------|
D|------------------------------------|
A|--0h3--3--3h4--4--4h5--5--5h6--6h7--|
E|------------------------------------|
A|------------------------------------|

9.NO PLACE TO HIDE

 p     p   p     p
G|--3H4-0---3H4-0-----0-0--|
D|-------------------------|
A|-------------------------|
E|--0----------0-----------|
B|-------------------------|
    t          t


Verse
B---------------------------------|
E---3H4-0----3H4-0----0-0---------|
A---------------------------------|
D---------------------------------|
G---------------------------------|

Chorus

      t     t     t      t    t t
B---3H4-0----3H4-0---0-0----------|
E---------------------------------|
A---------------------------------|
D---------------------------------|
G---------------------------------|

Mellow Part
B---0H5H6P-------|
E----------------|
A----------------|
D----------------|
G----------------|

After Mellow Part

      t            t  t        t
B---0H5H6P-0--05H6-0------------|
E-------------------------------|
A-------------------------------|
D-------------------------------|
G-------------------------------|

10.WICKED

Intro
F|-(9)-(7)--------------|
C|----------------------| () play this notes with
G|----------------------| slapin style.
D|----------------------|
A|---------------0000---|

Verse I
F|--------------|
C|--------------|
G|-------9-8-7--| PLay thi many times
D|-6------------|
A|---7-5--------|

F|-----(6/7)--------|
C|-----------(6/7)--|
G|------------------| AFter while play this
D|-6----------------| once.
A|---7--------------|

Last time
F|----------7/9-5/7-|
C|------7/9---------|
G|-7/9--------------|
D|------------------|
A|------------------|

Chorus
F|--------------|
C|--------------|
G|--------------|
D|-0------3-2-1-|
A|---3--2-------|

Post Chorus I
F|------------------------|
C|------------------------|
G|------------------------| / Scratch the string
D|------------------------|    with your nails
A|-XXXX-//-XX-0-XX-//-XXX-|

Verse II
F|-------------|
C|-------------|
G|-------9-8-7-|x3
D|-6-----------|
A|---7-5-------|

F|------------------|
C|------------------|
G|------------------|x1
D|------------------|
A|-3/4/5-5/6/7-3/4/5|

F|-------------|
C|-------------|
G|-------9-8-7-|x1
D|-6-----------|
A|---7-5-------|

F|-------------|
C|---------8-7-|
G|-------9-----|x1
D|-6-----------|
A|---7-5-------|

F|-------------|
C|-------------|
G|-------9-8-7-|x1
D|-6-----------|
A|---7-5-------|

F|------------------|
C|------------------|
G|------------------|x1
D|------------------|
A|-3/4/5-5/6/7-7/6/5|

F|--------------|
C|--------------|
G|-------9-8-7--| PLay thi many times
D|-6------------|
A|---7-5--------|

Post Chorus II
F|-------------------------|
C|-------------------------|
G|-------------------------|
D|-------------------------|
A|-XXX-/-XX-0-XXX-XX-//////|

Verse III
F|------------------------------------------------------------|
C|------------------------------------------------------------|
G|------------------------------------------------------------|
D|------------------------------------------------------------|
A|-1\0-XXXX--1\0---1\0--XXXXX--1\0--1\0--XXXX--1\0--1\0-XX//--|

F|-------------|
C|-------------|
G|-------9-8-7-|x4
D|-6-----------|
A|---7-5-------|

Post Chorus III
F|---------------|
C|---------------|
G|---------------|
D|---------------|
A|-XXXXX-0-//--//|

Last Chorus
F|--------------|
C|--------------|
G|--------------|x5
D|-0------3-2-1-|
A|---3--2-------|

F|-------------|
C|-------------|
G|-------------|x1
D|-------3-2-1-|
A|--3--2-------|

F|--------------|
C|--------------|
G|--------------|x2
D|-0------3-2-1-|
A|---3--2-------|

Outro
F|----------|
C|----------|
G|----------|
D|---7------|
A|-5----6-5-|

11.A.D.I.D.A.S.

Verse (Listen song for timin)
F|-------------------------------|
C|-------------------------------|
G|-------------------------------|
D|-------------------------------|
A|-0-XXX-0-00XXXX--0-XXX-0-00-XX-|

Pre - Chorus I
F|--------------------------------------|
C|--------------------------------------|
G|--------------------------------------|
D|-1/2----------------------1/2---------|
A|-----1/2-3/4----1-0-11-0------1/2-3/4-|

Pre - Chorus II
F|---------------------------------------------|
C|---------------------------------------------|
G|---------------------------------------------| ~Let ring
D|-1/2----------------------1/2----------------|
A|-----1/2-3/4----1-0-11-0------1/2-3/4-1-1-0~-|

Chorus
F|------------------|
C|------------------|
G|------------------|Follow the rythm of the drums
D|------------------|
A|-00000000-11111111|

Bridge
F|-------------------------------|
C|-------------------------------|
G|-------------------------------|
D|-------------------------------|
A|-1-00-1-00---1-00-1-00-4\3-3\2-|

Last Chorus
F|-----------|
C|-----------|
G|-----------| x4
D|-----------|
A|-0-0~-1-1~-|

F|------------------|
C|------------------|
G|------------------|x4
D|------------------|
A|-00000000-11111111|

12.LOWRIDER

Intro and Verse
F|----------------------|
C|----------------------|
G|--------1-3-0-1-0-1-3-|
D|----1-3---------------|
A|-22-------------------|

After I verse
F|----------------------------|
C|--7-6-5---------------------|
G|--------7-6-5------------3-5|
D|--------------7-6--5--33----|
A|----------------------------|

Repeat verse again

After second verse
F|------------------------------------|
C|----10-9-8-7------------------------|
G|-------------10-9-------9-8-7-------|
D|-00---------------10--9-------9-8-7-|
A|------------------------------------|

Repeat verse a few times and end with this riff:

F|--------------------|
C|--------------------|
G|--------1-3-0-1-0-1-|
D|----1-3-------------|
A|-22-----------------|

13.ASS ITCH

Tunning: A,D,G,C,F

Verse
F|--------|
C|--------|
G|--------|
D|--------|
A|-00-000-|

Pre - Chorus
F|---------------------------------------------------|
C|---------------------------------------------------|
G|---------------------------------------------------|
D|---------------------------------------------------|
A|-xxxxxxxxxxxxxxxxxxxxxxxxxxxxxxxxxxxxxxxxxxxxxxxxx-|

Chorus
F|------------|
C|------------|
G|------------|
D|------------|
A|--0-0-2-3\2-|

Pre - verse
F|---------------|
C|---------------|
G|---------------|
D|---------------|
A|-00-00-00-00-0-|

Bridge
F|------------------------------------------------------------|
C|------------------------------------------------------------|
G|-------------15-14-13-12-----------15-14-13-12--------------|
D|-------------------------15-14-0---------------15-14-13-12\-|
A|-0~~~-9\---0---------------------0--------------------------|

Heavy Bridge
F|---------------------|
C|---------------------|
G|---------------------|
D|---------------------|
A|-3/4-3/4-3/4-3/4-3-4-|

After Heavy Bridge
F|------------------|
C|------------------|
G|------------------|
D|------------------|
A|-00-000-000-000-0-|

Outro: Same as Heavy Bridge

14.KILL YOU

Verse (Listen song for timing)
F|---------------------------------------------|
C|---------------------------------------------|
G|---------------------------------------------|
D|---------------------------------------------|
A|-3-33-3-333-3-33-3-333-2-22-2-222-2-22-2-222-|

Pre - Chorus
F|---------------------|
C|---------------------|
G|---------------------| ~Let ring
D|-----------------2---|
A|--3~~~~~-2~~~~~~---0-|

Chorus (Listen song for timing)
F|----------------------|
C|----------------------|
G|----------------------|
D|----------------------|
A|-0-00-0-00-XXXXXXXXXX-|

Bridge I (Listen song for timing)
F|----------------|
C|----------------|
G|----------------| Repeat many times
D|----------------|
A|-0000-000-0-0-0-|

End Bridge with this
F|---------|
C|---------|
G|---------|
D|---------|
A|-2-3-2-1-|

Bridge II (OUTRO) Listen song for timin
F|-11----------------11-12-------14---|
C|----12-11----------------11-12------|
G|----------12------------------------| x1
D|--------------9---------------------|
A|-----------------0----------------0-|

F|-11----------------11-11/12-------14---|
C|----12-11-------------------11-12------|
G|----------12---------------------------| x1
D|--------------9------------------------|
A|-----------------0-------------------0-|

F|-11----------------11-12-------14---|
C|----12-11----------------11-12------|
G|----------12------------------------| x3
D|--------------9---------------------|
A|-----------------0----------------0-|

F|-11----------------|
C|----12-11----------|
G|----------12-------| x1
D|--------------9----|
A|-----------------0-|

F|-12--------11--------------11-12-------|
C|----11--------12-11--------------11-12-|
G|--------------------12-----------------|This riff is played softly and slowly
D|-----------------------9---------------|
A|-------0~----------------0-------------|
comments
print report bad tab
I want to post or [tab]
guest
You may want to rate the tab now too:
select rating
Please do not post tabs as comments. Select "correction" instead!