Oops, an error
Loading. Please wait.

Porno Creep tab

version 4
version 4

Whole song

Interactive

by Korn
1,754 views 3 this week
no commentswrite comment
1 2 3 4 5
3 more votes to show rating
add to favorites
×
Save as Personal and add changes to this tab that will be seen only by you. Learn more ›
×
You can save this tab as Personal to edit and correct it or add notes. All changes will be seen only by you. Learn more »
launch autoscroll
font size
0
reset
how to read this tab
guitar tuner
edit
Autoscroll
slow
fast
+/-
esc
set tempo
stop
Gtr I (A D G C F A D) - 'Munky (Left)'
Gtr II (A D G C F A D) - 'Head (Right)'


 Intro
  Slowly Q=69
  Em
 4/4
  Gtr I
  T
  W          Wx2          Wx2
|----------|------------|--------|
|----------|------------|--------|
|----------|------------|--------|
|----------|------------|--------|
|----------|------------|--------|
|----------|------------|--------|
|----------|------------|--------|


   E  S  S  S  S  S  S  S  S  S  S  S  S  S  S
|----------------------------------------------|
|----------------------------------------------|
|----------------------------------------------|
|-14-14-14-14-14-14-14-14-14-14-14-14-14-14-14-|
|----------------------------------------------|
|----------------------------------------------|
|----------------------------------------------|


   S  S  S  S  S  S  S  S  S  S  S  S  S  S  E
|----------------------------------------------|
|----------------------------------------------|
|----------------------------12----12----12-12-|
|-14-14-14-14-14-14-14-14-14----14----14-------|
|----------------------------------------------|
|----------------------------------------------|
|----------------------------------------------|


   E    E  S  S  S  E  S  S  S  S  S   E    +S   Q   S   S  S  Q.        E
|----------------------------------------|---------------------------------|
|----------------------------------------|---------------------------------|
|------12----------------12-------12-----|----------12--12-12-12-----------|
|-14---14-14-14-14-14-14----14-14-----14-|-(14)-14-------------------------|
|----------------------------------------|---------------------------------|
|----------------------------------------|---------------------------------|
|----------------------------------------|---------------------------------|
|
| Gtr II
|  H..                                 E     Q.          E     E.  E  E.
|-19---------------------------------/20-|--18---------/19----15--12-------|
|----------------------------------------|---------------------------12----|
|----------------------------------------|---------------------------------|
|----------------------------------------|---------------------------------|
|----------------------------------------|---------------------------------|
|----------------------------------------|---------------------------------|
|----------------------------------------|---------------------------------|


  C#m/E
   E    E S  S S  S  H          E   S S  S  S S  S  S S   S  S  S  T  T  +E
|-------------------15-------|------------------15---------------------------|
|------14---14---14----------|-----14---14-14---------x--12----12-12-12-(12)-|
|----------------------------|-----------------------------------------------|
|------14---14---------------|-14--14---14-14--------------------------------|
|----------------------------|-----------------------------------------------|
|----------------------------|-----------------------------------------------|
|----------------------------|-----------------------------------------------|
|
|  H..                     E    Q.            S  E.       Q.
|-19---------------------/24-|-18---------------12---------------------------|
|----------------------------|-----------------------------------------------|
|----------------------------|--------------------------<14>-----------------|
|----------------------------|-----------------------------------------------|
|----------------------------|-----------------------------------------------|
|----------------------------|-----------------------------------------------|
|----------------------------|-----------------------------------------------|


  Em6
   E    E  S  S S  S  +H
|-----------------15-(15)-------|
|------14-14-14---14-(14)-------|
|------12-12-12---12-(12)-------|
|-14---14-14-14---14-(14)-------|
|-------------------------------|
|-------------------------------|
|-------------------------------|
|
|  H..                        E
|-19------------------------/20-|
|-------------------------------|
|-------------------------------|
|-------------------------------|
|-------------------------------|
|-------------------------------|
|-------------------------------|


   E   E  S  S   S  S  S   S  S  S  S  S   S  S
|-----------------------------------------------|
|-----14-14-14----------------------------------|
|-----12-12-12-----12-12--12-12-12-12-12--12-12-|
|-----14-14-14----------------------------------|
|-----------------------------------------------|
|-----------------------------------------------|
|-----------------------------------------------|
|
|  Q.            E     E.        E     E.
|-18-----------/19----15--------12--------------|
|-------------------------------------12--------|
|-----------------------------------------------|
|-----------------------------------------------|
|-----------------------------------------------|
|-----------------------------------------------|
|-----------------------------------------------|


   E    E  S  S S  S  +H           E   E  S  S S  S  S S   E  S S  S S
|-----------------15-(15)-------|----------------15--------------------|
|------14-14-14---14-(14)-------|-----14-14-14---14-------12-----------|
|------12-12-12-----------------|-----12-12-12----------------x---12---|
|-14---14-14-14-----------------|-14--14-14-14-x-------x--------x------|
|-------------------------------|--------------------------------------|
|-------------------------------|--------------------------------------|
|-------------------------------|--------------------------------------|
|
|  H..                        E    Q.          S  E.       Q.
|-19------------------------/24-|-18-------------12--------------------|
|-------------------------------|--------------------------------------|
|-------------------------------|------------------------<14>----------|
|-------------------------------|--------------------------------------|
|-------------------------------|--------------------------------------|
|-------------------------------|--------------------------------------|
|-------------------------------|--------------------------------------|


 Verse
  C#m/E
   E    S S  S  S S  S  +H
|---------------------------------|
|------14-----------14-(14)-------|
|---------------------------------|
|-14---14---14-14---14-(14)-------|
|---------------------------------|
|---------------------------------|
|---------------------------------|
|
|  H..                          E
|-19--------------------------/20-|
|---------------------------------|
|---------------------------------|
|---------------------------------|
|---------------------------------|
|---------------------------------|
|---------------------------------|


  Em6
   E   S S  S  S   S  S  S   S  S  S  S  S   S  S
|--------------------15---------------------------|
|-----14---14-14-----14-----12-12-12-12-12--12-12-|
|-----12---12-12-----12---------------------------|
|-14--14---14-14---x-14---------------------------|
|-------------------------------------------------|
|-------------------------------------------------|
|-------------------------------------------------|
|
|  Q.              E     E.        E     E.
|-18-------------/19----15--------12--------------|
|---------------------------------------12--------|
|-------------------------------------------------|
|-------------------------------------------------|
|-------------------------------------------------|
|-------------------------------------------------|
|-------------------------------------------------|


   S   S  S  S  S  S  S  E  S  S  S  S  S   S  S
|------------------------------------------------|
|------------------------------------------------|
|--------12-12-12-12----------------12-----------|
|-12s=14-------------14-14-14-14-14----14--14-12-|
|------------------------------------------------|
|------------------------------------------------|
|------------------------------------------------|
|
|  H..                                      E
|-19--------------------------------------/24----|
|------------------------------------------------|
|------------------------------------------------|
|------------------------------------------------|
|------------------------------------------------|
|------------------------------------------------|
|------------------------------------------------|


   S  S  S  S  S  S  S  S   S  S   S   S  S  S  S  S
|-----------------------------------------------------|
|----------------------------------------14-----------|
|-------------12--------------12--12-----12-----------|
|-12s14-14-14----14-14-14--14-14--14--14-14-14-14-12--|
|-----------------------------------------------------|
|-----------------------------------------------------|
|-----------------------------------------------------|
|
|  Q.                S  E.         Q.
|-18-------------------12-----------------------------|
|-----------------------------------------------------|
|--------------------------------<14>-----------------|
|-----------------------------------------------------|
|-----------------------------------------------------|
|-----------------------------------------------------|
|-----------------------------------------------------|


   S   S  S  S  S  S  S  S  S  S  S  S  S  E      S
|---------------------------------------------------|
|---------------------------------------------------|
|--------------12-------12-------------12-----------|
|-12s=14-14-14----14-14----14-14-14-14----14-----14-|
|---------------------------------------------------|
|---------------------------------------------------|
|---------------------------------------------------|
|
|  H..                                         E
|-19-----------------------------------------/20----|
|---------------------------------------------------|
|---------------------------------------------------|
|---------------------------------------------------|
|---------------------------------------------------|
|---------------------------------------------------|
|---------------------------------------------------|


   S  S  S  S  S  S   S  S  S   S  S  E.      S  S
|---------------------------------------------------|
|---------------------------------------------------|
|-------------12--------12--------12----------------|
|-14s12s14-14----14--14--------14------------12-12--|
|---------------------------------------------------|
|---------------------------------------------------|
|---------------------------------------------------|
|
|  Q.                 E     E.        E   E.
|-18----------------/19----15--------12-------------|
|----------------------------------------12---------|
|---------------------------------------------------|
|---------------------------------------------------|
|---------------------------------------------------|
|---------------------------------------------------|
|---------------------------------------------------|


  C#m/E               Em6             C#m/E          Em6
   S   S  S S  S  S S  S  +H           E   E  S  S S  S  S S   S  S S S S S
|---------------------15-(15)-------|----------------15---------------------|
|--------14---14-14---14-(14)-------|-----14-14-14---14----x---x--x-x-x-x-x-|
|-----------------------------------|---------------------------------------|
|-12s=14-14---14-14-x-14-(14)-------|-14--14-14-14---14---------------------|
|-----------------------------------|---------------------------------------|
|-----------------------------------|---------------------------------------|
|-----------------------------------|---------------------------------------|
|
|  H..                            E    Q.          S  E.       Q.
|-19----------------------------/24-|-18-------------12---------------------|
|-----------------------------------|---------------------------------------|
|-----------------------------------|------------------------<14>-----------|
|-----------------------------------|---------------------------------------|
|-----------------------------------|---------------------------------------|
|-----------------------------------|---------------------------------------|
|-----------------------------------|---------------------------------------|


  C#m/E
   E    E  S  S S  S  +H           E   S S  S  S   S  S  S  S S  S S  S  S S
|-----------------15-(15)-------|--------------------15----------------------|
|------14-14-14-----------------|-----14---14-14------------x-x--x-x--x--x-x-|
|-------------------------------|--------------------------------------------|
|-14---14-14-14-x---------------|-14--14---14-14-----------------------------|
|-------------------------------|--------------------------------------------|
|-------------------------------|--------------------------------------------|
|-------------------------------|--------------------------------------------|
|
|  H..                        E    Q.              E     E.      E    E.
|-19------------------------/20-|-18-------------/19----15------12-----------|
|-------------------------------|------------------------------------12------|
|-------------------------------|--------------------------------------------|
|-------------------------------|--------------------------------------------|
|-------------------------------|--------------------------------------------|
|-------------------------------|--------------------------------------------|
|-------------------------------|--------------------------------------------|


   E    E  S  S S  S  +H           E   S S  S  S S  S  S S   S   S S S  S  S
|-----------------15-(15)-------|------------------15-------17s=15-----15s12-|
|------14-14-14-----------------|-----14---14-14-----------------------------|
|-------------------------------|------------------------x---------x-x-------|
|-14---14-14-14-x---------------|-14--14---14-14-----------------------------|
|-------------------------------|--------------------------------------------|
|-------------------------------|--------------------------------------------|
|-------------------------------|--------------------------------------------|
|
|  H..                        E    Q.            S  E.       Q.
|-19------------------------/24-|-18---------------12------------------------|
|-------------------------------|--------------------------------------------|
|-------------------------------|--------------------------<14>--------------|
|-------------------------------|--------------------------------------------|
|-------------------------------|--------------------------------------------|
|-------------------------------|--------------------------------------------|
|-------------------------------|--------------------------------------------|


 Outro
  C#m/E
   E    E  S  S S  S  +H
|-----------------15-(15)-------|
|------14-14-14-----------------|
|-------------------------------|
|-14---14-14-14-x---------------|
|-------------------------------|
|-------------------------------|
|-------------------------------|
|
|  H..                        E
|-19------------------------/20-|
|-------------------------------|
|-------------------------------|
|-------------------------------|
|-------------------------------|
|-------------------------------|
|-------------------------------|


   E   S S  S  S   S  S  S  S  S  S S  S   S  S
|--------------------15-------17s15-------15s12-|
|-----14---14-14--------------------------------|
|---------------------------x-------x--x--------|
|-14--14---14-14--------------------------------|
|-----------------------------------------------|
|-----------------------------------------------|
|-----------------------------------------------|
|
|  Q.              E     E.       E    E.
|-18-------------/19----15-------12-------------|
|-------------------------------------12--------|
|-----------------------------------------------|
|-----------------------------------------------|
|-----------------------------------------------|
|-----------------------------------------------|
|-----------------------------------------------|


  H.=H
   S   S  S  S S S  S  S S S  S  S S S   S S
|--------17s15-----15s12---------------------|
|--------------------------------------------|
|--x---x-------x-x-------x-x-12s15-x-x---x-x-|
|--------------------------------------------|
|--------------------------------------------|
|--------------------------------------------|
|--------------------------------------------|
|
|  H..                                   E
|-19-----------------------------------/24---|
|--------------------------------------------|
|--------------------------------------------|
|--------------------------------------------|
|--------------------------------------------|
|--------------------------------------------|
|--------------------------------------------|


   S  S  S  S S S  S  S  S S   S  S S S S S
|-------17s15-----15-13---------------------|
|-------------------------------------------|
|--x--x-14s12-x-x--------x-x---x--x-x-x-x-x-|
|-------------------------------------------|
|-------------------------------------------|
|-------------------------------------------|
|-------------------------------------------|
|
|  Q.              S  E.       Q.
|-18-----------------12---------------------|
|-------------------------------------------|
|----------------------------<14>-----------|
|-------------------------------------------|
|-------------------------------------------|
|-------------------------------------------|
|-------------------------------------------|


                                 Q=56
   Q..    E  E   S   +Q      +W
|-------------------------|----------*|
|---------------15--(15)--|-(15)-----*|
|-12-----12-12-(12)-(12)--|-(12)-----*|
|-------------------------|----------*|
|-------------------------|----------*|
|-------------------------|----------*|
|-------------------------|----------*|
|
|  W                          W
|-------------------------|----------*|
|-------------------------|----------*|
|-------------------------|----------*|
|-------------------------|----------*|
|-------------------------|----------*|
|-------------------------|----------*|
|-------------------------|----------*|




--------------------------------------------------------------------------------


Duration Legend
---------------
W - whole; H - half; Q - quarter; E - 8th; S - 16th; T - 32nd; X - 64th; a - acciaccatura
+ - note tied to previous; . - note dotted; .. - note double dotted
Uncapitalized letters represent notes that are staccato (1/2 duration)
Irregular groupings are notated above the duration line
Duration letters will always appear directly above the note/fret number it represents the
duration for.  Duration letters with no fret number below them represent rests.  Multi-
bar rests are notated in the form Wxn, where n is the number of bars to rest for.  Low
melody durations appear below the staff

Tablature Legend
----------------
 h   - hammer-on
 p   - pull-off
 b   - bend
 pb  - pre-bend
 r   - bend release (if no number after the r, then release immediately)
 /\  - slide into or out of (from/to "nowhere")
 s   - legato slide
 S   - shift slide
 - natural harmonic
[n]  - artificial harmonic
n(n) - tapped harmonic
 ~   - vibrato
 tr  - trill
 T   - tap
 TP  - trem. picking
 PM  - palm muting
\n/  - tremolo bar dip; n = amount to dip
 \n  - tremolo bar down
 n/  - tremolo bar up
/n\  - tremolo bar inverted dip
 =   - hold bend; also acts as connecting device for hammers/pulls
 <> - volume swell (louder/softer)
 x   - on rhythm slash represents muted slash
 o   - on rhythm slash represents single note slash

Misc Legend
-----------
 |  - bar
||  - double bar
||o - repeat start
o|| - repeat end
*|  - double bar (ending)
 :  - bar (freetime)
 $  - Segno
 &  - Coda
Tempo markers -  = BPM(8/16=s8/s16), where s8 = swing 8ths, s16 = swing 16ths


            
            
Suggest correction
Creating personal tab
Creating personal tab
You can edit any tab online and save it as your Personal.

You can edit, replace or remove any tab part or add personal notes – all changes will be seen only by you.

Personal tabs can be accessed anytime from any device, even offline.
Learn more »
Give kudos to tab author, rate the tab!
1 2 3 4 5
comments
print report bad tab
guest
You may want to rate the tab now too:
select rating
Wanna post a correction for this tab? Suggest correction