Oops, an error
Loading. Please wait.

Right Now Bass Tab

version 2
version 2
by Korn
3,330 views 9 this week
no commentswrite comment
1 2 3 4 5
accurate
x 4
add to favorites
launch autoscroll
font size
0
reset
guitar tuner
Autoscroll
slow
fast
+/-
esc
set tempo
stop
Help us to improve Ultimate-Guitar.com Take our survey!
×
Author
-------------------------------------------------------------------------------
			     RIGHT NOW - KoRn
-------------------------------------------------------------------------------

Tabbed By : KoRnKid89
e-mail: XblytheX89@aol.com

Tuning: ADGCF

*NOTE: When the numbers 1 and 0 appear together in the tabs, they are single 
       digits and do not stand for the number 10.

  Intro: (slap all)

F|-------|
C|-------|
G|-------|
D|-------|
A|--0-0--| (Cameo when second guitar phrase begins)
              x          x          x
F|-------------------------------------------|
C|-------------------------------------------|
G|-------------------------------------------|
D|-------------------------------------------|
A|--0-0-10--0-3--0-10--0-2--0-10--0-1--0-10--|
              x          x          x
F|-------------------------------------------|
C|-------------------------------------------|
G|-------------------------------------------|
D|-------------------------------------------|
A|--000010--0-3--0-10--0-2--0-10--0-1--0-10--|

(x2)


  Verse: (slap all)
    
F|------------------|
C|------------------|
G|------------------|
D|------------------|
A|--0-0-10--000010--| (x8)


  Chorus: (slap all)
              x          x          x
F|-------------------------------------------|
C|-------------------------------------------|
G|-------------------------------------------|
D|-------------------------------------------|
A|--0-0-10--0-3--0-10--0-2--0-10--0-1--0-10--|
              x          x          x
F|-------------------------------------------|
C|-------------------------------------------|
G|-------------------------------------------|
D|-------------------------------------------|
A|--000010--0-3--0-10--0-2--0-10--0-1--0-10--|

(x2)


  Intro to Verse 2:
    S S SS 
F|------------------|
C|------------------|
G|------------------|
D|------------------|
A|--0-0-10--000010--|


  Bridge: 
  pt. 1 (mostly silent)
F|------------------|
C|------------------|
G|------------------|
D|------------------|
A|--5\--------------| (Immediately tails last phrase of Verse 2)

  pt. 2
F|------------------|
C|------------------|
G|------------------|
D|------------------|
A|--3h5-3-3\--------| (x4)

  pt. 3
    (slap all)
F|------------------|
C|------------------|
G|------------------|
D|------------------|
A|--4-4-54--444454--| (x8)


  Intro to final chorus:
    S S                                    SSS SS
F|--------------------------------------|-------------------------------------|
C|--------------------------------------|-------------------------------------|
G|--------------------------------------|-------------------------------------|
D|--------------------------------------|-------------------------------------|
A|--0-0---------------------------------|--000-10-----------------------------|


  Outro:
  (slap all)
F|----------|
C|----------|
G|----------|
D|----------|
A|--000010--| (x16)


| P  pop
| S  slap
| /  slide up
| \  slide down
| h  hammer-on
| p  pull-off
| ~  vibrato
| +  harmonic
| x  Mute note
===============================================================================
Suggest correction
comments
print report bad tab
guest
You may want to rate the tab now too:
select rating
Wanna post a correction for this tab? Suggest correction