Oops, an error
Loading. Please wait.
We have an official Rotting In Vain tab made by UG professional guitarists. Check out the tab »
×
by Korn
12,724 views 69 this week
5 commentsread comments
1 2 3 4 5
x 11
add to favorites
×
Save as Personal and add changes to this tab that will be seen only by you. Learn more ›
×
You can save this tab as Personal to edit and correct it or add notes. All changes will be seen only by you. Learn more »
launch autoscroll
font size
0
reset
how to read this tab
guitar tuner
edit
Autoscroll
slow
fast
+/-
esc
set tempo
stop
-------------------------------------------------------------------------------
                             ROTTING IN VAIN - Korn
-------------------------------------------------------------------------------
Tabbed by: FRr3AkOnALEaSh
E-mail: smokin_05@hotmail.com

Tuning: A Standard (7-String) A D G C F A D

SONG: https://www.youtube.com/watch?v=xiIPFEP6G2c


[Intro]

                  [0:00]          [0:01]
D|---------------------|---------------|
A|---------------------|---------------|
F|--16-16-16-----------|--16-16--------|
C|-----------14-14-14--|--------14-14--|
G|---------------------|---------------|
D|---------------------|---------------|
A|-----------------{x2]|---------------|


[Intro]

           [0:07]             [0:12]             [0:17]             [0:21]               [0:24]
D|--------------|------------------|------------------|------------------|--------------------|
A|--------------|------------------|------------------|------------------|--------------------|
F|--16-17-16-14-|--16-17-16-14--16-|--16-17-16-14--12-|--16-17-16-14--16-|--17-16-17-16-17-16-|
C|--------------|------------------|------------------|------------------|--------------------|
G|--------------|------------------|------------------|------------------|--------------------|
D|--------------|------------------|------------------|------------------|--------------------|
A|--------------|------------------|------------------|------------------|--------------------|


[Intro/Pre-Verse]

                     [0:26]                   [0:28]
D|------------------------|------------------------|
A|------------------------|------------------------|
F|------------------------|------------------------|
C|------------------------|------------------------|
G|------------------------|------------------------|
D|---10---10----9---------|----7----7----9---------|
A|--0-8--0-8--0-7-0--7-0--|--0-5--0-5--0-7-0--7-0--|


[Intro/Pre-Verse]

                     [0:31]                 [0:33]
D|------------------------|----------------------|
A|------------------------|----------------------|
F|------------------------|----------------------|
C|------------------------|----------------------|
G|------------------------|----------------------|
D|---10---10----9---------|----7----7----9----3--|
A|--0-8--0-8--0-7-0--7-0--|--0-5--0-5--0-7-0--1--|


[Verse]

Gtr 1               [0:44]                       [0:49]                  [0:53]                      [0:58]
D|-----------------------|----------------------------|-----------------------|---------------------------|
A|-----------------------|----------------------------|-----------------------|---------------------------|
F|--16-17-16-14--14------|--16-17-16-14--16-----------|--16-17-16-14--12------|--16-17-16-14--16----------|
C|-----------------------|----------------------------|-----------------------|---------------------------|
G|-----------------------|----------------------------|-----------------------|---------------------------|
D|-----------------------|----------------------------|-----------------------|---------------------------|
A|-----------------------|----------------------------|-----------------------|---------------------------|


[Verse]

Gtr 2               [0:46]                       [0:51]                  [0:55]                      [1:00]
D|-----------------------|----------------------------|-----------------------|---------------------------|
A|-----------------------|-------------------20~-19~--|-----------------------|-------------------20~-19~-|
F|-------------------16~-|----------------------------|-------------------16~-|---------------------------|
C|-----------------------|----------------------------|-----------------------|---------------------------|
G|-----------------------|----------------------------|-----------------------|---------------------------|
D|-----------------------|----------------------------|-----------------------|---------------------------|
A|-----------------------|----------------------------|-----------------------|---------------------------|


[Pre-Chorus]

                    [1:00]         
D|-----------------------|
A|-----------------------|
F|-----------------------|
C|-----------------------|
G|-----------------------|
D|----3---3---3---3---3--|
A|--0-1--01--01--01--01--|


[Chorus]

Gtr 1           [1:02]                [1:05]              [1:07]                  [1:09]
D|-------------------|---------------------|-------------------|-----------------------|
A|-------------------|---------------------|-------------------|-----------------------|
F|-------------------|---------------------|-------------------|-----------------------|
C|-------------------|---------------------|-------------------|-----------------------|
G|-------------------|--5-5-5-5-5-5-5-5----|-------------------|-----------------------|
D|--2-2-2-2-2-2-2-2--|--3-3-3-3-3-3-3-3----|--5-5-5-5-5-5-5-5--|--7-7-7-7-----3-3-3-3--|
A|--0-0-0-0-0-0-0-0--|---------------------|--3-3-3-3-3-3-3-3--|--5-5-5-5-----1-1-1-1--|


[Chorus]

Gtr 2           [1:02]                [1:05]              [1:07]                  [1:09]
D|-------------------|---------------------|-------------------|-----------------------|
A|--------12---------|---------------------|--------12---------|-----------------------|
F|--12-11----12--11--|--12-11-9---12-11-9--|--12-11----12--11--|--12-11------12-11-----|
C|-------------------|---------------------|-------------------|--------12---------12--|
G|-------------------|---------------------|-------------------|-----------------------|
D|-------------------|---------------------|-------------------|-----------------------|
A|-------------------|---------------------|-------------------|-----------------------|


[Bridge]

Gtr 1                                              [2:05] 
D|------------------------------------------------------|
A|------------------------------------------------------|
F|--14-14-14-14--13-13-13-13--12-12-12-12--11-11-11-11--| < 11's
C|------------------------------------------------------|
G|------------------------------------------------------|
D|------------------------------------------------------|
A|------------------------------------------------------|


[Bridge]

Gtr 2                               [2:05]       
D|---------------------------------------|
A|---------------------------------------|
F|---------------------------------------|
C|--7-7-7-7--6-6-6-6--5-5-5-5--4-4-4-4---|
G|--x-x-x-x--x-x-x-x--x-x-x-x--x-x-x-x---|
D|--5-5-5-5--4-4-4-4--3-3-3-3--2-2-2-2---|
A|---------------------------------------|


[Bridge]

             [2:08]            [2:11]
D|----------------|-----------------|
A|----------------|-----------------|
F|----------------|-----------------|
C|----------------|-----------------|
G|----------------|-----------------|
D|----3---3-------|-----3---3-------|
A|--0-1--01/--{x3}|--00-1--01/--{x1}|



************************************

| x  Dead note
| ~  Vibrato
| /  Slide up

************************************

            
            
Suggest correction
Creating personal tab
Creating personal tab
You can edit any tab online and save it as your Personal.

You can edit, replace or remove any tab part or add personal notes – all changes will be seen only by you.

Personal tabs can be accessed anytime from any device, even offline.
Learn more »
comments
print report bad tab
5 comments total. Showing first comments.
0 reply
JimBonJovi 830 Jul 22, 2016 01:48 PM

Awesome as always Freak.

0 reply
mysticguitar77 6,026 Jul 23, 2016 07:44 AM

The intro sounds like harmonics:

D|-7*-7*-7*-12*-12*-12*-|-7*-7*-12*-12*-|
A|----------------------|---------------|
F|----------------------|---------------|
C|----------------------|---------------|
G|----------------------|---------------|
D|----------------------|---------------|
A|-----------------{x2]-|---------------|

The rest is spot on. Nice job!

0 reply
esoteric4334 10 Oct 08, 2016 08:38 PM

So you're very close with the main riff.

There's a couple less hits on the open A which creates an interesting somewhat syncopated rhythm:
The riff is more accurately:

08 08 7070 05 05 7070

So just less open notes than your tab.
Good otherwise.

guest
You may want to rate the tab now too:
select rating
Wanna post a correction for this tab? Suggest correction