Oops, an error
Loading. Please wait.
We have an official Somebody Someone tab made by UG professional guitarists. Check out the tab »
×
by Korn
284 views 1 this week
no commentswrite comment
1 2 3 4 5
3 more votes to show rating
add to favorites
×
Save as Personal and add changes to this tab that will be seen only by you. Learn more ›
×
You can save this tab as Personal to edit and correct it or add notes. All changes will be seen only by you. Learn more »
launch autoscroll
font size
0
reset
guitar tuner
edit
Autoscroll
slow
fast
+/-
esc
set tempo
stop
Difficulty
intermediate
Well this tab is for one of my favourite korn songs to play which is called Somebody
but throughout this site and other tab sites there have been alot of variations of tabs for
song, alone none of them fitted the song. So I'm taking the liberty of making my own tab 
stuff I made up and combining things from other peoples tabs just to make it sound
So here it goes and if you have any comments, complaints, or you just want to talk bass 
me on msn at thunder_thumbs@hotmail.com, your input will be very much appericated.

S=slap
p=pop
h=hammer on
^=bend
Intro
F|------------------|
C|------------------|
G|------------------|
D|------------------|
A|------------------|
0:00-0:10

F|------------------|
C|------------------|
G|----5-----5--6^---|x8
D|------------------|
A|33-3--33-3-33-----|
  SS Sp SS SpSSp
0:10-0:31

F|---------5-----------2--|
C|----77----5------33---2-|
G|5-5----------1-1---0----|x4
D|-------8----------------|
A|------------------------|
0:32-0:52

F|------------------|
C|------------------|
G|----5-----5--6^---|x4
D|------------------|
A|33-3--33-3-33-----|
  SS Sp SS SpSSp
0:53-1:02

F|------------------------|
C|------------------------|
G|------------------------|x2
D|---2--1---------2--1----|
A|3--------4--3^--------2-|
  S  S  S  S  S   S  S  S
1:03-1:23

F|---------5-----------2--|
C|----77----5------33---2-|
G|5-5----------1-1---0----|x6
D|-------8----------------|
A|------------------------|
1:24-1:56

F|------------------|
C|------------------|
G|----5-----5--6^---|x4
D|------------------|
A|33-3--33-3-33-----|
  SS Sp SS SpSSp
1:56-2:06

F|------------------------|
C|------------------------|
G|------------------------|x2
D|---2--1---------2--1----|
A|3--------4--3^--------2-|
  S  S  S  S  S   S  S  S
2:07-2:27

F|------------------|
C|------------------|
G|------------------|
D|------------------|
A|------------------|
2:28-2:33
~~~~~~~~~~~~~~~~~~~~~~~~)
F|-----------------|    )
C|---7----7----6---|    )
G|5----------4-----|x5  )
D|-----5-----------|    )
A|-----------------|    )
2:32-2:52               )
                        )You can do either one of these here, it all
       OR               )depends on personal preferrence, theres not really
F|-----------------|    )much difference besides 2 extra notes which then
C|---7----7---6--6-|    )makes it go a little faster. So do what you feel
G|5----------4-4---|x5  )is right.
D|-----5-----------|    )
A|-----------------|    )
2:32-2:52               )
~~~~~~~~~~~~~~~~~~~~~~~~)

F|------------------|
C|------------------|
G|------------------|
D|------------------|
A|------------------|
2:53-2:58
~~~~~~~~~~~~~~~~~~~~~~~~~~~~~~~~~~)
F|-----------------------|        )
C|-----------------------|        )
G|-----------------------|x12     )
D|-----1------------1----|        )
A|-2h3---3--2h33333----2-|        )
   S   S S  S  SSSS S  S          )
2:59-3:38                         )Once again you can do either one and
           OR                     )like I said before it all depends on
F|---------------------------|    )personal preferrence, and also if you
C|---------------------------|    )choose the one with more notes you'll
G|---------------------------|x12 )have to be faster.
D|---------1------------1----|    )
A|-2h33333---3--2h33333----2-|    )
   S  SSSS S S  S  SSSS S  S      )
2:59-3:38                         )
~~~~~~~~~~~~~~~~~~~~~~~~~~~~~~~~~~)

F|------------------|
C|------------------|
G|------------------|Hold until end of song.
D|------------------|
A|---2--------------|
     S
3:38-end

            
            
Suggest correction
Creating personal tab
Creating personal tab
You can edit any tab online and save it as your Personal.

You can edit, replace or remove any tab part or add personal notes – all changes will be seen only by you.

Personal tabs can be accessed anytime from any device, even offline.
Learn more »
Give kudos to tab author, rate the tab!
1 2 3 4 5
comments
print report bad tab
guest
Wanna post a correction for this tab? Suggest correction