Oops, an error
Loading. Please wait.

Spike In My Veins tab

version 2
version 2

Whole song

by Korn
5,535 views 6 this week
3 commentsread comments
1 2 3 4 5
x 7
add to favorites
×
Save as Personal and add changes to this tab that will be seen only by you. Learn more ›
×
You can save this tab as Personal to edit and correct it or add notes. All changes will be seen only by you. Learn more »
launch autoscroll
font size
0
reset
how to read this tab
guitar tuner
edit
Autoscroll
slow
fast
+/-
esc
set tempo
stop
-------------------------------------------------------------------------------
                             SPIKE IN MY VEINS - Korn
-------------------------------------------------------------------------------
Tabbed by: FRr3AKOnALEaSh
E-mail: smokin_05@hotmail.com

Tuning: B Standard (7 String) B E A D G B E
Tuning: A Standard (7 String) A D G C F A D

x - Dead-Note
h - Hammer-On
p - Pull-Off

So if you didn't know, this song was written by
Jonathan Davis during his JDevil tour. The way he
played it was with 2 different tunings with 6-string
guitars. The Intro, verse and Pre-Chorus were all 
done in Standard tuning. The chorus and bridge 
were done in Drop D. So what I've done is tabbed
out the song both in 2 Variations for a 7-String. 
I did parts in B and parts in A, but keep in mind 
that the entire song can be played solely in B, but not 
in A (Riff 4 and 5 really prevent that) if you see
any riffs without any 2nd variation, that means
it really isn't that possible to play it successfully
in A-Standard.

~ CHECK THE BOTTOM OF THE PAGE FOR STRUCTURE ~

Riff 1 (Var 1)(Intro/Verse)(B-Standard)
E|------------|------------|------------|------------------|
B|------------|------------|------------|------------------|
G|--4-444444--|--5-555555--|--7-777777--|-13-131313131313--|
D|--x-xxxxxx--|--x-xxxxxx--|--x-xxxxxx--|--x--x-x-x-x-x-x--|
A|--2-222222--|--3-333333--|--5-555555--|-11-111111111111--|
E|------------|------------|------------|------------------|
B|------------|------------|------------|------------------|

Riff 1 (Var 2)(Intro/Verse)(A-Standard)
D|------------|------------|------------|------------------|
A|------------|------------|------------|------------------|
F|--6-666666--|--7-777777--|--9-999999--|-15-151515151515--|
C|--x-xxxxxx--|--x-xxxxxx--|--x-xxxxxx--|--x--x-x-x-x-x-x--|
G|--4-444444--|--5-555555--|--7-777777--|-13-131313131313--|
D|------------|------------|------------|------------------|
A|------------|------------|------------|------------------|

Riff 2 (Var 1)(Verse)(B-Standard)
E|---------|----------------|
B|---------|----------------|
G|---------|----------------|
D|---------|----------------|
A|---7-----|-----5555-7777--|
E|--0-0-0--|--00------------|
B|---------|----------------|

Riff 2 (Var 2)(Verse)(A-Standard)
D|---------|----------------|
A|---------|----------------|
F|---------|----------------|
C|---------|----------------|
G|---9-----|-----7777-9999--|
D|---------|----------------|
A|--7-7-7--|--77------------|

Riff 3 (Var 1)(Verse)(B-Standard)
E|------------|--------|--------|
B|------------|--------|--------|
G|------------|--------|--------|
D|------------|--------|--------|
A|------------|--------|--------|
E|--33333333--|--5555--|--1111--|
B|------------|--------|--------|

Riff 3 (Var 2)(Verse)(A-Standard)
D|------------|--------|--------|
A|------------|--------|--------|
F|------------|--------|--------|
C|------------|--------|--------|
G|------------|--------|--------|
D|--55555555--|--7777--|--3333--|
A|------------|--------|--------|

Riff 4 (Verse)
E|--------------|---------|
B|--------------|---------|
G|--------------|---------|
D|--------------|---------|
A|--------------|---------|
E|--13p12-0-----|--13p12--|
B|----------{x4}|---------|

Riff 5 (Pre-Chorus)
E|----------------------|----------------------|
B|----------------------|----------------------|
G|----------------------|----------------------|
D|----------------------|----------------------|
A|----------------------|----------------------|
E|--12-00--12-00--12-0--|--10-00--10-00--10-0--|
B|----------------------|----------------------|

Riff 6 (Pre-Chorus)
E|----------------------|----------------------|
B|----------------------|----------------------|
G|----------------------|----------------------|
D|----------------------|----------------------|
A|----------------------|----------------------|
E|--16-00--17-00--16-0--|--11-00--11-00--11-0--|
B|----------------------|----------------------|

Riff 7 (Var 1)(Chorus)(B-Standard)
E|--------|--------|--------|--------|--------|
B|--------|--------|--------|--------|--------|
G|--------|--------|--------|--------|--------|
D|--------|--------|--------|--------|--------|
A|--------|--6-----|--7-----|--7-----|--3-----|
E|--5-----|--4-----|--5-----|--4-----|--1-----|
B|--3-{x8}|----{x3}|----{x3}|----{x3}|----{x8}|

Riff 7 (Var 2)(Chorus)(A-Standard)
D|--------|--------|--------|--------|--------|
A|--------|--------|--------|--------|--------|
F|--------|--------|--------|--------|--------|
C|--------|--------|--------|--------|--------|
G|--2-----|--8-----|--9-----|--8-----|--5-----|
D|--0-----|--6-----|--7-----|--6-----|--3-----|
A|----{x8}|----{x3}|----{x3}|----{x3}|----{x8}|

Riff 8 (Var 1)(Bridge)(B-Standard)
E|-------------|
B|-------------|
G|-------------|
D|-------------|
A|-------------|
E|--0-0h2p0-0--|
B|-------------|

Riff 8 (Var 2)(Bridge)(A-Standard)
D|-------------|
A|-------------|
F|-------------|
C|-------------|
G|-------------|
D|--2-2h3p2-2--|
A|-------------|

Riff 9 (Var 1)(Bridge)(B-Standard)
E|---------|---------|---------|---------|
B|---------|---------|---------|---------|
G|---------|---------|---------|---------|
D|---------|---------|---------|---------|
A|---------|---------|---------|---------|
E|--2-2-2--|--0-0-0--|--6-7-6--|--3-3-3--|
B|---------|---------|---------|---------|

Riff 9 (Var 1)(Bridge)(A-Standard)
D|---------|---------|---------|---------|
A|---------|---------|---------|---------|
F|---------|---------|---------|---------|
C|---------|---------|---------|---------|
G|---------|---------|---------|---------|
D|---------|---------|--4-5-4--|--1-1-1--|
A|--5-5-5--|--3-3-3--|---------|---------|

Riff 10 (Var 1)(Bridge)(B-Standard) Bagpipes
E|----------|------17--|------19--|
B|------17--|----15----|----17----|
G|----16----|----------|----------|
D|--14------|--12------|--14------|
A|----------|----------|----------|
E|----------|----------|----------|
B|----------|----------|----------|

Riff 10 (Var 2)(Bridge)(A-Standard) Bagpipes
D|----------|------15--|------17--|
A|------15--|----13----|----15----|
F|----14----|----------|----------|
C|--12------|--10------|--12------|
G|----------|----------|----------|
D|----------|----------|----------|
A|----------|----------|----------|

~~~~~~~~~~~~~~~~~~~~~~~~~~~~~~~~~~~~~~~~~~~~~

STRUCTURE:

~ VERSE 1 ~

0:00 - 0:33 = Riff 1
0:33 - 0:41 = Riff 2
0:41 - 0:44 = Riff 3
0:44 - 0:52 = Riff 2
0:52 - 0:55 = Riff 3
0:47 - 0:55 = Riff 4
0:55 - 0:58 = Riff 5
0:58 - 1:01 = Riff 6
1:01 - 1:03 = Riff 5
1:03 - 1:06 = Riff 6

~ CHORUS 1 ~

1:08 - 1:29 = Riff 7

~ Verse 2 ~

1:29 - 2:02 = Riff 1
2:02 - 2:11 = Riff 2
2:11 - 2:13 = Riff 3
2:13 - 2:22 = Riff 2
2:22 - 2:25 = Riff 3
2:16 - 2:25 = Riff 4
2:25 - 2:27 = Riff 5
2:27 - 2:30 = Riff 6
2:30 - 2:33 = Riff 5
2:33 - 2:36 = Riff 6

~ CHORUS 2 ~

2:36 - 2:58 = Riff 7

~ BRIDGE ~

2:58 - 3:09 = Riff 8
3:09 - 3:30 = Riff 9 & 10

~ CHORUS 3 ~

3:31 - END  = Riff 7

~~~~~~~~~~~~~~~~~~~~~~~~~~~~~~~~~~~~~~~~~~~~~

If you believe this tab is accurate, don't forget to leave
a good rating (It helps me out a lot) leave any questions
or corrections in the comments below. Check out my profile
for more from the Paradigm Shift. Enjoy =)
Suggest correction
Creating personal tab
Creating personal tab
You can edit any tab online and save it as your Personal.

You can edit, replace or remove any tab part or add personal notes – all changes will be seen only by you.

Personal tabs can be accessed anytime from any device, even offline.
Learn more »
comments
print report bad tab
3 comments total.
0 reply
mikedirnt4ever 10 Apr 06, 2014 08:57 PM

Great tab. Sounds great! :D

0 reply
aaron.j.klassen 10 Jul 19, 2014 05:59 AM

Sounds pretty good, the only gripe I have with it is the second bar of the pre-chorus. Instead of using this:
E|----------------------|----------------------|
B|----------------------|----------------------|
G|----------------------|----------------------|
D|----------------------|----------------------|
A|----------------------|----------------------|
E|--16-00--17-00--16-0--|--11-00--11-00--11-0--|
B|----------------------|----------------------|

use this:
E|----------------------|----------------------|
B|----------------------|----------------------|
G|----------------------|----------------------|
D|----------------------|----------------------|
A|----------------------|----------------------|
E|--16-00--17-00--16-0--|--13-00--13-00--13-0--|
B|----------------------|----------------------|

0 reply
jekylhyde 20 Apr 25, 2015 02:35 AM, edited on August 12 2016, 06:51 am

Great tab! Thanks!

guest
You may want to rate the tab now too:
select rating
Wanna post a correction for this tab? Suggest correction