Oops, an error
Loading. Please wait.

Take Me Tab

version 1
version 1

Whole song

Interactive

by Korn
1,654 views 18 this week
no commentswrite comment
1 2 3 4 5
x 5
add to favorites
launch autoscroll
font size
0
reset
how to read this tab
guitar tuner
×
Best way to learn
"Take Me"
Autoscroll
slow
fast
+/-
esc
set tempo
stop
Author
Difficulty
intermediate
Played on 7 string guitar


[Main Riff] 

D|------------------------------------------|
A|------------------------------------------|
F|----16-16---16-16---16--16-16-16----------|
C|----15-15---15-15---15--15-15-15----------|
G|----14-14---14-14---14--14-14-14----------|
D|------------------------------------------|
A|------------------------------------------|

D|---------------------------------------------------------------|
A|---------------------------------------------------------------|
F|----------------------------------------------------------16---|
C|----------------------------------------------------------15---| x2
G|----------------------------------------------------------14---|
D|---------------------------------------------------------------|
A|-----0-0---0-0----0----0-0-0-----0-0---0-0----0---0-0-0--------|

[Verse]

D|----------------------------------------------------------------------------------------------------|
A|----------------------------------------------------------------------------------------------------|
F|----------------------------------------------------------------------------------------------------|
C|----------------------------------------------------------------------------------------------------|
G|----------------------------------------------------------------------------------------------------|
D|----------------------------------------------------------------------------------------------------|
A|--0-0---0-0-0-0---0---0-0-0----0-0---0-0-0-0---0---0-0-0----3-3---3-3-3-3---3---3-3-3---1--1-1-1-1--|



[Chorus]

D|--------------------------------------------|
A|--------------------------------------------|
F|--------------------------------------------|
C|------------------------------------7-------|
G|---2----5---3---------2----5---3----7-------| 
D|---2----5---3---------2----5---3----5-------|
A|---0----3---1---------0----3---1------------|



[Bridge]

D|-----------------------------------------------------------------------------------------------------------
A|-----------------------------------------------------------------------------------------------------------
F|-----------------------------------------------------------------------------------------------------------
C|-----------------------------------------------------------------------------------------------------------
G|-----------------------------------------------------------------------------------------------------------
D|-----------------------------------------------------------------------------------------------------------
A|--0----1---3----6-------7-------0-------0----1---3----6-------7-------0------0------6-----0-----6------7---


Song order :

Main Riff
Verse x2
Chorus x2
Verse x2
Chorus x2
Bridge
Main Riff
Chorus x4
Suggest correction
comments
print report bad tab
guest
You may want to rate the tab now too:
select rating
Wanna post a correction for this tab? Suggest correction