Oops, an error
Loading. Please wait.

The Past tab

version 1
version 1

Whole song

by Korn
3,756 views 1 this week
1 commentread comment
1 2 3 4 5
x 4
add to favorites
×
Save as Personal and add changes to this tab that will be seen only by you. Learn more ›
×
You can save this tab as Personal to edit and correct it or add notes. All changes will be seen only by you. Learn more »
launch autoscroll
font size
0
reset
how to read this tab
guitar tuner
backing track
0:00
0:00
edit
Autoscroll
slow
fast
+/-
esc
set tempo
stop
Korn - Korn III: Remember Who You Are - The Past

Tabbed by: FRr3AkOnALEaSh (smokin_05@hotmail.com)
Tuning: 7 String Tuned Low to High (A D G C F a d)

Vocal: Jonathan Houseman Davis 'Hiv'
Guitar: James Randal Shaffer 'Munky'
Bass: Reginald Arvizu 'Fieldy
Drums: Ray Luzier

Riff 1 (Intro)
D|----------------|---------|
A|----------------|---------|
F|----------------|---------|
C|----------------|---------|
G|--5-6-7--6-7-8--|--5-6-7--|
D|----------------|---------|
A|----------------|---------|

Riff 1.5 (Intro LIVE)(Phaser Effect)
D|--10----10-----|---------|
A|---------------|---------| Double tap fast with
F|-----11----10--|--7-8-9--| Phaser for full effect.
C|---------------|---------| 
G|---------------|---------|
D|---------------|---------|
A|---------------|---------|

Riff 2 (Intro)
D|---------------|--------------|
A|---------------|--------------|
F|---------------|--------------|
C|---------------|--------------|
G|--22-22-22-22--|--22-22-2222--|
D|--00-00-00-00--|--00-00-0000--|
A|---------------|--------------|
    .. .. .. ..     .. .. ....   PM

Riff 3 (Intro/Chorus)
D|-------------------------|-------------------------|
A|-------------------------|-------------------------|
F|-------------------------|-------------------------|
C|-------------------------|-------------------------|
G|--7/8\7--------5-55--44--|--7/8\7--------5-55------|
D|--5/6\5--5-55--3-33--22--|--5/6\5--5-55--3-33--66--|
A|---------3-33------------|---------3-33--------44--|

Riff 4 (Intro/Chorus)
D|-------------------------|------------------------------|
A|-------------------------|------------------------------|
F|-------------------------|------------------------------|
C|-------------------------|------------------------------|
G|--7/8\7--------5-55--44--|--7/8\7--4/5\4--7/8\7--4/5\4--|
D|--5/6\5--5-55--3-33--22--|--5/6\5--2/3\2--5/6\5--2/3\2--|
A|---------3-33------------|------------------------------|

Riff 5 (Verse)
D|-------------------------------------------------------------------|
A|-------------------------------------------------------------------|
F|-------------------------------------------------------------------|
C|--19-19-19-20-19---17-17-17-19-17---16-16-16-17-16---15-1515-1414--|
G|-------------------------------------------------------------------|
D|-------------------------------------------------------------------|
A|-------------------------------------------------------------------|

Riff 6 (Pre-Verse) After First Chorus.
D|---------------------------|----------------|
A|---------------------------|----------------|
F|---------------------------|----------------|
C|--12~--14~--10~--12~-------|--12~--14~--10~-|
G|----------------------12~--|----------------|
D|---------------------------|----------------|
A|---------------------------|----------------|

Riff 7 (Verse 2)
D|--17-17-17-18-17---15-15-15-17-15---14-14-14-15-14---13-1313-1212--|
A|-------------------------------------------------------------------|
F|-------------------------------------------------------------------|
C|-------------------------------------------------------------------|
G|-------------------------------------------------------------------|
D|-------------------------------------------------------------------|
A|-------------------------------------------------------------------|

Riff 8 (Pre-Chorus/Fill)
D|--------|
A|--------|
F|--------| (Half a bend)
C|--7^77--|
G|--5^55--|
D|--------|
A|--------|

Riff 9 (Breakdown)
D|-----------------------|------------|
A|--15-16-17---16-17-18--|--15-16-17--|
F|-----------------------|------------|
C|-----------------------|------------|
G|-----------------------|------------|
D|-----------------------|------------|
A|-----------------------|------------|

Riff 10 (Breakdown)
D|----------------------|----------------------|
A|----------------------|----------------------|
F|----------------------|----------------------|
C|----------------------|----------------------|
G|-----77---77---77-77--|-----66---66---66-66--|
D|--55-55-5-55-5-55-55--|--44-44-4-44-4-44-44--|
A|----------------------|----------------------|
    ..    .    .           ..    .    .          PM

Riff 11 (Breakdown)
D|----------------------|----------------------|
A|----------------------|----------------------|
F|----------------------|----------------------|
C|----------------------|----------------------|
G|-----55---55---55-55--|-----44---44---44-44--|
D|--33-33-3-33-3-33-33--|--22-22-2-22-2-22-22--|
A|----------------------|----------------------|
    ..    .    .           ..    .    .          PM

Riff 12 (Breakdown)
D|--------------------|
A|--------------------|
F|--------------------|
C|--------------------|
G|--------------------|
D|--------------------|
A|--55555555-555h6p5--|

Riff 13 (Breakdown)
D|------------------------------------|------------------------------------|
A|------------------------------------|------------------------------------|
F|--14141414141414141414141414141414--|--13131313131313131313131313131313--|
C|--xxxxxxxxxxxxxxxxxxxxxxxxxxxxxxxx--|--xxxxxxxxxxxxxxxxxxxxxxxxxxxxxxxx--|
G|--12121212121212121212121212121212--|--11111111111111111111111111111111--|
D|------------------------------------|------------------------------------|
A|------------------------------------|------------------------------------|

Riff 14 (Breakdown)
D|------------------------------------|------------------------------------|
A|------------------------------------|------------------------------------|
F|--12121212121212121212121212121212--|--111111111111111110101010-9-9-9-9--|
C|--xxxxxxxxxxxxxxxxxxxxxxxxxxxxxxxx--|--xxxxxxxxxxxxxxxxxxxxxxxx-x-x-x-x--|
G|--10101010101010101010101010101010--|---9-9-9-9-9-9-9-9-8-8-8-8-7-7-7-7--|
D|------------------------------------|------------------------------------|
A|------------------------------------|------------------------------------|

Riff 15 (Outro)
D|-------------|-----------------------|
A|-------------|-----------------------|
F|-------------|--15-14-14---15-14\12--|
C|---------12--|-----------------------|
G|--7--10--10--|-----------------------|
D|--5--8-------|-----------------------|
A|-------------|-----------------------|

NOTE: Listen to the song to stucture out the different riff's.

            
            
Suggest correction
Creating personal tab
Creating personal tab
You can edit any tab online and save it as your Personal.

You can edit, replace or remove any tab part or add personal notes – all changes will be seen only by you.

Personal tabs can be accessed anytime from any device, even offline.
Learn more »
comments
print report bad tab
1 comment total.
+1 reply
DEMONPUNISH3R 10 Aug 20, 2010 08:46 AM

Very well done, the live intro was the icing on the cake ^.^!!!

guest
You may want to rate the tab now too:
select rating
Wanna post a correction for this tab? Suggest correction