Oops, an error
Loading. Please wait.
We have an official Thoughtless tab made by UG professional guitarists. Check out the tab »
×
by Korn
522 views 1 this week
no commentswrite comment
1 2 3 4 5
3 more votes to show rating
add to favorites
×
Save as Personal and add changes to this tab that will be seen only by you. Learn more ›
×
You can save this tab as Personal to edit and correct it or add notes. All changes will be seen only by you. Learn more »
launch autoscroll
font size
0
reset
how to read this tab
guitar tuner
edit
Autoscroll
slow
fast
+/-
esc
set tempo
stop
Author
Difficulty
Song: Thoughtless
Artist: Korn
Album: Untouchables
Instruments: 2 guitars
Tuning: everyone says ADGCFA, but i play it in EADGBE and it sounds fine
Tab: #sketch
Note: play the clear parts with lots of delay effect if possible
also, when a line ends in ">", it means the next line (beginning with "<")
is still part of the same riff, so if the second line ends in "x2",
you play both lines 2 times, not just the second one
this is the only tab of the song telling you to palm mute the beginning riff,
usually they say to play it clear with delay, but i'm pretty sure what i
hear in the beginning are palm mutes, and a delay rythm on the background

oh, and "^" means you need to bend the string,
while ")" means the last note you played has to ring til there.
it's my way of compensating that you can't show how long a note is on a tab

--

GUITAR1 (distortion)
E|-----------------|-----------------|-----------------|-----------------|
B|-----------------|-----------------|-----------------|-----------------|
G|-----------------|-----------------|-----------------|-----------------|
D|-----------------|-----------------|-----------------|-----------------|
A|---5-----5-------|---5-----5-------|---7-----7-------|---7-----8-8-8-8-|
E|-0---0-0-------0-|-0---0-0-------0-|-0---0-0-------0-|-0---0-0---------|
   1 + 2 + 3 + 4 +   1 + 2 + 3 + 4 +   1 + 2 + 3 + 4 +   1 + 2 + 3 + 4 +
   PM...................................................................

GUITAR2 (clear w/ delay)
E|-----------------|-----------------|-----------------|-----------------|
B|-----------------|-----------------|-----------------|-----------------|
G|-----------------|-----------------|-----------------|-----------------|
D|-----------------|-----------------|-----------------|---------8-8-8-8-|
A|---5-5-5-5^--5-5-|---5-5-5-5^--5-5-|---7-7-7-7^--7-7-|---7-7-7---------|
E|-----------------|-----------------|-----------------|-----------------|
   1 + 2 + 3 + 4 +   1 + 2 + 3 + 4 +   1 + 2 + 3 + 4 +   1 + 2 + 3 + 4 +

--

GUITAR1 (distortion)
E|-----------------|-----------------|-----------------|-----------------|
B|-----------------|-----------------|-----------------|-----------------|
G|-----------------|-----------------|-----------------|-----------------|
D|-----------------|-----------------|-----------------|-----------------| x2
A|-----5---5-------|---5-----5-------|---7-----7-------|---7-----8-8-8-8-|
E|---0---0-------0-|-0---0-0-------0-|-0---0-0-------0-|-0---0-0---------|
   1 + 2 + 3 + 4 +   1 + 2 + 3 + 4 +   1 + 2 + 3 + 4 +   1 + 2 + 3 + 4 +
   PM...................................................................

GUITAR2 (clear w/ delay)
E|-----------------|-----------------|-----------------|-----------------|
B|-----------------|-----------------|-----------------|-----------------|
G|-9^------------)-|12^------------)-|-8^--------------|---------------)-|
D|-x---------------|-x---------------|-x---------------|-----------------| x2
A|-7^------------)-|10^------------)-|-6^--------------|---------------)-|
E|-----------------|-----------------|-----------------|-----------------|
   1 + 2 + 3 + 4 +   1 + 2 + 3 + 4 +   1 + 2 + 3 + 4 +   1 + 2 + 3 + 4 +

--

GUITAR1
E|-----------------|-----------------|-----------------|-----------------|
B|-----------------|-----------------|-----------------|-----------------|
G|-----------------|-----------------|-----------------|-----------------|
D|-----------------|-----------------|-----------------|-----------------|
A|-----------------|-----------------|-----------------|-----------------|
E|-----------------|-----------------|-----------------|-----------------|
   1 + 2 + 3 + 4 +   1 + 2 + 3 + 4 +   1 + 2 + 3 + 4 +   1 + 2 + 3 + 4 +

GUITAR2 (clear w/ delay)
E|-----------------|-----------------|-----------------|-----------------|
B|-----------------|-----------------|-----------------|-----------------|
G|-9^------------)-|12^------------)-|-8^--------------|---------------)-|
D|-x---------------|-x---------------|-x---------------|-----------------|
A|-7^------------)-|10^------------)-|-6^--------------|---------------)-|
E|-----------------|-----------------|-----------------|-----------------|
   1 + 2 + 3 + 4 +   1 + 2 + 3 + 4 +   1 + 2 + 3 + 4 +   1 + 2 + 3 + 4 +

--

GUITAR1 (distortion)
E|-----------------|-----------------|-----------------|-----------------|
B|-----------------|-----------------|-----------------|-----------------|
G|-----------------|-----------------|-----------------|-----------------|
D|---------7-------|---7-----7-------|---9-----9-------|---9-----10101010|
A|-6-6-6-6-5-------|---5-----5-------|---7-----7-------|---7-----8-8-8-8-|
E|-4-4-4-4-------0-|-0---0-0-------0-|-0---0-0-------0-|-0---0-0---------|
   1 + 2 + 3 + 4 +   1 + 2 + 3 + 4 +   1 + 2 + 3 + 4 +   1 + 2 + 3 + 4 +

GUITAR2 (distortion)
E|-----------------|-----------------|-----------------|-----------------|
B|-----------------|-----------------|-----------------|-----------------|
G|-----------------|-----------------|-----------------|-----------------|
D|---------7-------|---7-----7-------|---9-----9-------|---9-----10101010|
A|-6-6-6-6-5-------|---5-----5-------|---7-----7-------|---7-----8-8-8-8-|
E|-4-4-4-4-------0-|-0---0-0-------0-|-0---0-0-------0-|-0---0-0---------|
   1 + 2 + 3 + 4 +   1 + 2 + 3 + 4 +   1 + 2 + 3 + 4 +   1 + 2 + 3 + 4 +

--

GUITAR1 (distortion)
E|-----------------|-----------------|-----------------|-----------------|
B|-----------------|-----------------|-----------------|-----------------|
G|-----------------|-----------------|-----------------|-----------------|
D|---------7-------|---7-----7-------|---9-----9-------|---9-----10101010| x5
A|---6-6-6-5-------|---5-----5-------|---7-----7-------|---7-----8-8-8-8-|
E|---4-4-4-------0-|-0---0-0-------0-|-0---0-0-------0-|-0---0-0---------|
   1 + 2 + 3 + 4 +   1 + 2 + 3 + 4 +   1 + 2 + 3 + 4 +   1 + 2 + 3 + 4 +

GUITAR2 (distortion)
E|-----------------|-----------------|-----------------|-----------------|
B|-----------------|-----------------|-----------------|-----------------|
G|-----------------|-----------------|-----------------|-----------------|
D|---------7-------|---7-----7-------|---9-----9-------|---9-----10101010| x5
A|---6-6-6-5-------|---5-----5-------|---7-----7-------|---7-----8-8-8-8-|
E|---4-4-4-------0-|-0---0-0-------0-|-0---0-0-------0-|-0---0-0---------|
   1 + 2 + 3 + 4 +   1 + 2 + 3 + 4 +   1 + 2 + 3 + 4 +   1 + 2 + 3 + 4 +

--

GUITAR1 (distortion)
E|-----------------|-----------------|-----------------|-----------------|>
B|-----------------|-----------------|-----------------|-----------------|>
G|-----------------|-----------------|-----------------|-----------------|>
D|-----------------|-----------------|-----------------|-----------------|>
A|-----5-5-6-6-6-6-|-5---------------|-----5-5-6-6-6-6-|-6---------------|>
E|---0-3-3-4-4-4-4-|-3---------------|---0-3-3-4-4-4-4-|-4-1-----------)-|>
   1 + 2 + 3 + 4 +   1 + 2 + 3 + 4 +   1 + 2 + 3 + 4 +   1 + 2 + 3 + 4 +

GUITAR2 (distortion)
E|-----------------|-----------------|-----------------|-----------------|>
B|-8-8-8-8-9-9-9-9-|-1111111111111111|-118-8-8-9-9-9-9-|-9-11--1212121212|>
G|-x-x-x-x-x-x-x-x-|-x-x-x-x-x-x-x-x-|-x-x-x-x-x-x-x-x-|-x-x---x-x-x-x-x-|>
D|-6-6-6-6-7-7-7-7-|-9-9-9-9-9-9-9-9-|-9-6-6-6-7-7-7-7-|-7-9---1010101010|>
A|-----------------|-----------------|-----------------|-----------------|>
E|-----------------|-----------------|-----------------|-----------------|>
   1 + 2 + 3 + 4 +   1 + 2 + 3 + 4 +   1 + 2 + 3 + 4 +   1 + 2 + 3 + 4 +

GUITAR1 (distortion)
<|-----------------|-----------------|-----------------|-----------------|
<|-----------------|-----------------|-----------------|-----------------|
<|-----------------|-----------------|-----------------|-----------------|
<|-----------------|-----------------|-----------------|-----------------|
<|-----5-5-6-6-6-6-|-5---------------|-----5-5-6-6-6-6-|-6-------4-------|
<|---0-3-3-4-4-4-4-|-3---------------|---0-3-3-4-4-4-4-|-4-2-----2-1---)-|
   1 + 2 + 3 + 4 +   1 + 2 + 3 + 4 +   1 + 2 + 3 + 4 +   1 + 2 + 3 + 4 +

GUITAR2 (distortion)
<|-----------------|-----------------|-----------------|-----------------|
<|-8-8-8-8-9-9-9-9-|-1111111111111111|-118-8-8-9-9-9-9-|-9-11--1212121212|
<|-x-x-x-x-x-x-x-x-|-x-x-x-x-x-x-x-x-|-x-x-x-x-x-x-x-x-|-x-x---x-x-x-x-x-|
<|-6-6-6-6-7-7-7-7-|-9-9-9-9-9-9-9-9-|-9-6-6-6-7-7-7-7-|-7-9---1010101010|
<|-----------------|-----------------|-----------------|-----------------|
<|-----------------|-----------------|-----------------|-----------------|
   1 + 2 + 3 + 4 +   1 + 2 + 3 + 4 +   1 + 2 + 3 + 4 +   1 + 2 + 3 + 4 +

--

GUITAR1 (distortion)
E|-----------------|-----------------|-----------------|-----------------|>
B|-----------------|-----------------|-----------------|-----------------|>
G|-----------------|-----------------|-----------------|-----------------|>
D|-----------------|-----------------|-5-5-5-5---5---5-|-5-5-5-5---5---5-|>
A|-7-7-7-7---7---7-|-7-7-7-7---7---7-|-3-3-3-3---3---3-|-3-3-3-3---3---3-|>
E|-5-5-5-5---5---5-|-5-5-5-5---5---5-|-----------------|-----------------|>
   1 + 2 + 3 + 4 +   1 + 2 + 3 + 4 +   1 + 2 + 3 + 4 +   1 + 2 + 3 + 4 +

GUITAR2 (distortion)
E|-----------------|-----------------|-----------------|-----------------|>
B|-1616161616161616|-1616161617171717|-1919191919191919|-1919191921212121|>
G|-x-x-x-x-x-x-x-x-|-x-x-x-x-x-x-x-x-|-x-x-x-x-x-x-x-x-|-x-x-x-x-x-x-x-x-|>
D|-1414141414141414|-1414141415151515|-1717171717171717|-1717171719191919|>
A|-----------------|-----------------|-----------------|-----------------|>
E|-----------------|-----------------|-----------------|-----------------|>
   1 + 2 + 3 + 4 +   1 + 2 + 3 + 4 +   1 + 2 + 3 + 4 +   1 + 2 + 3 + 4 +

GUITAR1 (distortion)
<|-----------------|-----------------|-----------------|-----------------|
<|-----------------|-----------------|-----------------|-----------------|
<|-----------------|-----------------|-----------------|-----------------|
<|-----------------|-----------------|-----------------|-----------------| x2
<|-5-5-5-5---5---5-|-5-5-5-5---5---5-|-3-3-3-3---3---3-|-3-3-3-3-5-5-5-5-|
<|-3-3-3-3---3---3-|-3-3-3-3---3---3-|-1-1-1-1---1---1-|-1-1-1-1-3-3-3-3-|
   1 + 2 + 3 + 4 +   1 + 2 + 3 + 4 +   1 + 2 + 3 + 4 +   1 + 2 + 3 + 4 +

GUITAR2 (distortion)
<|-----------------|-----------------|-----------------|-----------------|
<|-1414141414141414|-1414141416161616|-1212121212121212|-1212121214141414|
<|-x-x-x-x-x-x-x-x-|-x-x-x-x-x-x-x-x-|-x-x-x-x-x-x-x-x-|-x-x-x-x-x-x-x-x-|
<|-1212121212121212|-1212121214141414|-1010101010101010|-1010101012121212| x2
<|-----------------|-----------------|-----------------|-----------------|
<|-----------------|-----------------|-----------------|-----------------|
   1 + 2 + 3 + 4 +   1 + 2 + 3 + 4 +   1 + 2 + 3 + 4 +   1 + 2 + 3 + 4 +

--

GUITAR1 (distortion)
E|-----------------|-----------------|-----------------|-----------------|
B|-----------------|-----------------|-----------------|-----------------|
G|-----------------|-----------------|-----------------|-----------------|
D|---------7-------|---7-----7-------|---9-----9-------|---9-----10101010| x4
A|---6-6-6-5-------|---5-----5-------|---7-----7-------|---7-----8-8-8-8-|
E|---4-4-4-------0-|-0---0-0-------0-|-0---0-0-------0-|-0---0-0---------|
   1 + 2 + 3 + 4 +   1 + 2 + 3 + 4 +   1 + 2 + 3 + 4 +   1 + 2 + 3 + 4 +

GUITAR2 (distortion)
E|-----------------|-----------------|-----------------|-----------------|
B|-----------------|-----------------|-----------------|-----------------|
G|-----------------|-----------------|-----------------|-----------------|
D|---------7-------|---7-----7-------|---9-----9-------|---9-----10101010| x4
A|---6-6-6-5-------|---5-----5-------|---7-----7-------|---7-----8-8-8-8-|
E|---4-4-4-------0-|-0---0-0-------0-|-0---0-0-------0-|-0---0-0---------|
   1 + 2 + 3 + 4 +   1 + 2 + 3 + 4 +   1 + 2 + 3 + 4 +   1 + 2 + 3 + 4 +

--

GUITAR1 (distortion)
E|-----------------|-----------------|-----------------|-----------------|>
B|-----------------|-----------------|-----------------|-----------------|>
G|-----------------|-----------------|-----------------|-----------------|>
D|-----------------|-----------------|-----------------|-----------------|>
A|-----5-5-6-6-6-6-|-5---------------|-----5-5-6-6-6-6-|-6---------------|>
E|---0-3-3-4-4-4-4-|-3---------------|---0-3-3-4-4-4-4-|-4-1-----------)-|>
   1 + 2 + 3 + 4 +   1 + 2 + 3 + 4 +   1 + 2 + 3 + 4 +   1 + 2 + 3 + 4 +

GUITAR2 (distortion)
E|-----------------|-----------------|-----------------|-----------------|>
B|-8-8-8-8-9-9-9-9-|-1111111111111111|-118-8-8-9-9-9-9-|-9-11--1212121212|>
G|-x-x-x-x-x-x-x-x-|-x-x-x-x-x-x-x-x-|-x-x-x-x-x-x-x-x-|-x-x---x-x-x-x-x-|>
D|-6-6-6-6-7-7-7-7-|-9-9-9-9-9-9-9-9-|-9-6-6-6-7-7-7-7-|-7-9---1010101010|>
A|-----------------|-----------------|-----------------|-----------------|>
E|-----------------|-----------------|-----------------|-----------------|>
   1 + 2 + 3 + 4 +   1 + 2 + 3 + 4 +   1 + 2 + 3 + 4 +   1 + 2 + 3 + 4 +

GUITAR1 (distortion)
<|-----------------|-----------------|-----------------|-----------------|
<|-----------------|-----------------|-----------------|-----------------|
<|-----------------|-----------------|-----------------|-----------------|
<|-----------------|-----------------|-----------------|-----------------|
<|-----5-5-6-6-6-6-|-5---------------|-----5-5-6-6-6-6-|-6-------4-------|
<|---0-3-3-4-4-4-4-|-3---------------|---0-3-3-4-4-4-4-|-4-2-----2-1---)-|
   1 + 2 + 3 + 4 +   1 + 2 + 3 + 4 +   1 + 2 + 3 + 4 +   1 + 2 + 3 + 4 +

GUITAR2 (distortion)
<|-----------------|-----------------|-----------------|-----------------|
<|-8-8-8-8-9-9-9-9-|-1111111111111111|-118-8-8-9-9-9-9-|-9-11--1212121212|
<|-x-x-x-x-x-x-x-x-|-x-x-x-x-x-x-x-x-|-x-x-x-x-x-x-x-x-|-x-x---x-x-x-x-x-|
<|-6-6-6-6-7-7-7-7-|-9-9-9-9-9-9-9-9-|-9-6-6-6-7-7-7-7-|-7-9---1010101010|
<|-----------------|-----------------|-----------------|-----------------|
<|-----------------|-----------------|-----------------|-----------------|
   1 + 2 + 3 + 4 +   1 + 2 + 3 + 4 +   1 + 2 + 3 + 4 +   1 + 2 + 3 + 4 +

--

GUITAR1 (distortion)
E|-----------------|-----------------|-----------------|-----------------|>
B|-----------------|-----------------|-----------------|-----------------|>
G|-----------------|-----------------|-----------------|-----------------|>
D|-----------------|-----------------|-5-5-5-5---5---5-|-5-5-5-5---5---5-|>
A|-7-7-7-7---7---7-|-7-7-7-7---7---7-|-3-3-3-3---3---3-|-3-3-3-3---3---3-|>
E|-5-5-5-5---5---5-|-5-5-5-5---5---5-|-----------------|-----------------|>
   1 + 2 + 3 + 4 +   1 + 2 + 3 + 4 +   1 + 2 + 3 + 4 +   1 + 2 + 3 + 4 +

GUITAR2 (distortion)
E|-----------------|-----------------|-----------------|-----------------|>
B|-1616161616161616|-1616161617171717|-1919191919191919|-1919191921212121|>
G|-x-x-x-x-x-x-x-x-|-x-x-x-x-x-x-x-x-|-x-x-x-x-x-x-x-x-|-x-x-x-x-x-x-x-x-|>
D|-1414141414141414|-1414141415151515|-1717171717171717|-1717171719191919|>
A|-----------------|-----------------|-----------------|-----------------|>
E|-----------------|-----------------|-----------------|-----------------|>
   1 + 2 + 3 + 4 +   1 + 2 + 3 + 4 +   1 + 2 + 3 + 4 +   1 + 2 + 3 + 4 +

GUITAR1 (distortion)
<|-----------------|-----------------|-----------------|-----------------|
<|-----------------|-----------------|-----------------|-----------------|
<|-----------------|-----------------|-----------------|-----------------|
<|-----------------|-----------------|-----------------|-----------------| x2
<|-5-5-5-5---5---5-|-5-5-5-5---5---5-|-3-3-3-3---3---3-|-3-3-3-3-5-5-5-5-|
<|-3-3-3-3---3---3-|-3-3-3-3---3---3-|-1-1-1-1---1---1-|-1-1-1-1-3-3-3-3-|
   1 + 2 + 3 + 4 +   1 + 2 + 3 + 4 +   1 + 2 + 3 + 4 +   1 + 2 + 3 + 4 +

GUITAR2 (distortion)
<|-----------------|-----------------|-----------------|-----------------|
<|-1414141414141414|-1414141416161616|-1212121212121212|-1212121214141414|
<|-x-x-x-x-x-x-x-x-|-x-x-x-x-x-x-x-x-|-x-x-x-x-x-x-x-x-|-x-x-x-x-x-x-x-x-|
<|-1212121212121212|-1212121214141414|-1010101010101010|-1010101012121212| x2
<|-----------------|-----------------|-----------------|-----------------|
<|-----------------|-----------------|-----------------|-----------------|
   1 + 2 + 3 + 4 +   1 + 2 + 3 + 4 +   1 + 2 + 3 + 4 +   1 + 2 + 3 + 4 +

--

GUITAR1 (distortion)
E|-----------------|-----------------|-----------------|-----------------|
B|-----------------|-----------------|-----------------|-----------------|
G|-----------------|-----------------|-----------------|-----------------|
D|-----------------|-----------------|-----------------|-----------------|
A|---5-----5-------|---5-----5-------|---7-----7-------|---7-----8-8-8-8-|
E|-0---0-0-------0-|-0---0-0-------0-|-0---0-0-------0-|-0---0-0---------|
   1 + 2 + 3 + 4 +   1 + 2 + 3 + 4 +   1 + 2 + 3 + 4 +   1 + 2 + 3 + 4 +
   PM...................................................................

GUITAR2 (clear w/ delay)
E|-----------------|-----------------|-----------------|-----------------|
B|-----------------|-----------------|-----------------|-----------------|
G|-----------------|-----------------|-----------------|-----------------|
D|-----------------|-----------------|-----------------|---------8-8-8-8-|
A|---5-5-5-5^--5-5-|-----5-5-5^--5-5-|---7-7-7-7^--7-7-|---7-7-7---------|
E|-----------------|-----------------|-----------------|-----------------|
   1 + 2 + 3 + 4 +   1 + 2 + 3 + 4 +   1 + 2 + 3 + 4 +   1 + 2 + 3 + 4 +
--

GUITAR1 (distortion)
E|-----------------|-----------------|-----------------|-----------------|
B|-----------------|-----------------|-----------------|-----------------|
G|-----------------|-----------------|-----------------|-----------------|
D|-----------------|-----------------|-----------------|-----------------| x3
A|-----5---5-------|---5-----5-------|---7-----7-------|---7-----8-8-8-8-|
E|---0---0-------0-|-0---0-0-------0-|-0---0-0-------0-|-0---0-0---------|
   1 + 2 + 3 + 4 +   1 + 2 + 3 + 4 +   1 + 2 + 3 + 4 +   1 + 2 + 3 + 4 +
   PM...................................................................

GUITAR2 (clear w/ delay)
E|-----------------|-----------------|-----------------|-----------------|
B|-----------------|-----------------|-----------------|-----------------|
G|-----------------|-----------------|-----------------|-----------------|
D|-----------------|-----------------|-----------------|---------8-8-8-8-| x3
A|---5-5-5-5^--5-5-|-----5-5-5^--5-5-|---7-7-7-7^--7-7-|---7-7-7---------|
E|-----------------|-----------------|-----------------|-----------------|
   1 + 2 + 3 + 4 +   1 + 2 + 3 + 4 +   1 + 2 + 3 + 4 +   1 + 2 + 3 + 4 +

--

GUITAR1 (distortion)
E|-----------------|-----------------|-----------------|-----------------|
B|-----------------|-----------------|-----------------|-----------------|
G|-----------------|-----------------|-----------------|-----------------|
D|---------7-------|---7-----7-------|---9-----9-------|---9-----10101010| x2
A|---6-6-6-5-------|---5-----5-------|---7-----7-------|---7-----8-8-8-8-|
E|---4-4-4-------0-|-0---0-0-------0-|-0---0-0-------0-|-0---0-0---------|
   1 + 2 + 3 + 4 +   1 + 2 + 3 + 4 +   1 + 2 + 3 + 4 +   1 + 2 + 3 + 4 +

GUITAR2 (distortion)
E|-----------------|-----------------|-----------------|-----------------|
B|-----------------|-----------------|-----------------|-----------------|
G|-----------------|-----------------|-----------------|-----------------|
D|---------7-------|---7-----7-------|---9-----9-------|---9-----10101010| x2
A|---6-6-6-5-------|---5-----5-------|---7-----7-------|---7-----8-8-8-8-|
E|---4-4-4-------0-|-0---0-0-------0-|-0---0-0-------0-|-0---0-0---------|
   1 + 2 + 3 + 4 +   1 + 2 + 3 + 4 +   1 + 2 + 3 + 4 +   1 + 2 + 3 + 4 +

--

GUITAR1 (distortion)
E|-----------------|-----------------|-----------------|-----------------|
B|-----------------|-----------------|-----------------|-----------------|
G|-----------------|-----------------|-----------------|-----------------|
D|---------7-------|---7-----7-------|---9-----9-------|---9-----10101010| x2
A|---6-6-6-5-------|---5-----5-------|---7-----7-------|---7-----8-8-8-8-|
E|---4-4-4-------0-|-0---0-0-------0-|-0---0-0-------0-|-0---0-0---------|
   1 + 2 + 3 + 4 +   1 + 2 + 3 + 4 +   1 + 2 + 3 + 4 +   1 + 2 + 3 + 4 +

GUITAR2 (clear w/ delay)
E|-----------------|-----------------|-----------------|-----------------|
B|-----------------|-----------------|-----------------|-----------------|
G|-9^------------)-|12^------------)-|-8^--------------|---------------)-|
D|-x---------------|-x---------------|-x---------------|-----------------| x2
A|-7^------------)-|10^------------)-|-6^--------------|---------------)-|
E|-----------------|-----------------|-----------------|-----------------|
   1 + 2 + 3 + 4 +   1 + 2 + 3 + 4 +   1 + 2 + 3 + 4 +   1 + 2 + 3 + 4 +

--

GUITAR1
E|-----------------|-----------------|-----------------|-----------------|
B|-----------------|-----------------|-----------------|-----------------|
G|-----------------|-----------------|-----------------|-----------------|
D|-----------------|-----------------|-----------------|-----------------|
A|-----------------|-----------------|-----------------|-----------------|
E|-----------------|-----------------|-----------------|-----------------|
   1 + 2 + 3 + 4 +   1 + 2 + 3 + 4 +   1 + 2 + 3 + 4 +   1 + 2 + 3 + 4 +

GUITAR2 (clear w/ delay)
E|-----------------|-----------------|-----------------|-----------------|
B|-----------------|-----------------|-----------------|-----------------|
G|-9^------------)-|12^------------)-|-8^--------------|---------------)-|
D|-x---------------|-x---------------|-x---------------|-----------------|
A|-7^------------)-|10^------------)-|-6^--------------|---------------)-|
E|-----------------|-----------------|-----------------|-----------------|
   1 + 2 + 3 + 4 +   1 + 2 + 3 + 4 +   1 + 2 + 3 + 4 +   1 + 2 + 3 + 4 +

--

GUITAR1 (distortion)
E|-----------------|-----------------|-----------------|-----------------|>
B|-----------------|-----------------|-----------------|-----------------|>
G|-----------------|-----------------|-----------------|-----------------|>
D|-----------------|-----------------|-5-5-5-5---5---5-|-5-5-5-5---5---5-|>
A|-7-7-7-7---7---7-|-7-7-7-7---7---7-|-3-3-3-3---3---3-|-3-3-3-3---3---3-|>
E|-5-5-5-5---5---5-|-5-5-5-5---5---5-|-----------------|-----------------|>
   1 + 2 + 3 + 4 +   1 + 2 + 3 + 4 +   1 + 2 + 3 + 4 +   1 + 2 + 3 + 4 +

GUITAR2 (distortion)
E|-----------------|-----------------|-----------------|-----------------|>
B|-1616161616161616|-1616161617171717|-1919191919191919|-1919191921212121|>
G|-x-x-x-x-x-x-x-x-|-x-x-x-x-x-x-x-x-|-x-x-x-x-x-x-x-x-|-x-x-x-x-x-x-x-x-|>
D|-1414141414141414|-1414141415151515|-1717171717171717|-1717171719191919|>
A|-----------------|-----------------|-----------------|-----------------|>
E|-----------------|-----------------|-----------------|-----------------|>
   1 + 2 + 3 + 4 +   1 + 2 + 3 + 4 +   1 + 2 + 3 + 4 +   1 + 2 + 3 + 4 +

GUITAR1 (distortion)
<|-----------------|-----------------|-----------------|-----------------|
<|-----------------|-----------------|-----------------|-----------------|
<|-----------------|-----------------|-----------------|-----------------|
<|-----------------|-----------------|-----------------|-----------------| x4
<|-5-5-5-5---5---5-|-5-5-5-5---5---5-|-3-3-3-3---3---3-|-3-3-3-3-5-5-5-5-|
<|-3-3-3-3---3---3-|-3-3-3-3---3---3-|-1-1-1-1---1---1-|-1-1-1-1-3-3-3-3-|
   1 + 2 + 3 + 4 +   1 + 2 + 3 + 4 +   1 + 2 + 3 + 4 +   1 + 2 + 3 + 4 +

GUITAR2 (distortion)
<|-----------------|-----------------|-----------------|-----------------|
<|-1414141414141414|-1414141416161616|-1212121212121212|-1212121214141414|
<|-x-x-x-x-x-x-x-x-|-x-x-x-x-x-x-x-x-|-x-x-x-x-x-x-x-x-|-x-x-x-x-x-x-x-x-|
<|-1212121212121212|-1212121214141414|-1010101010101010|-1010101012121212| x4
<|-----------------|-----------------|-----------------|-----------------|
<|-----------------|-----------------|-----------------|-----------------|
   1 + 2 + 3 + 4 +   1 + 2 + 3 + 4 +   1 + 2 + 3 + 4 +   1 + 2 + 3 + 4 +

--

GUITAR1 (distortion)
E|-----------------|
B|-----------------|
G|-----------------|
D|-7-------------)-|
A|-7-------------)-|
E|-5-------------)-|
   1 + 2 + 3 + 4 +

GUITAR2 (distortion)
E|-----------------|
B|-12------------)-|
G|-x---------------|
D|-10------------)-|
A|-----------------|
E|-----------------|
   1 + 2 + 3 + 4 +

            
            
Suggest correction
Creating personal tab
Creating personal tab
You can edit any tab online and save it as your Personal.

You can edit, replace or remove any tab part or add personal notes – all changes will be seen only by you.

Personal tabs can be accessed anytime from any device, even offline.
Learn more »
Give kudos to tab author, rate the tab!
1 2 3 4 5
comments
print report bad tab
guest
You may want to rate the tab now too:
select rating
Wanna post a correction for this tab? Suggest correction