Oops, an error
Loading. Please wait.

Twisted Transistor tab

version 4
version 4
by Korn
8,015 views 9 this week
15 commentsread comments
1 2 3 4 5
x 9
add to favorites
×
Save as Personal and add changes to this tab that will be seen only by you. Learn more ›
×
You can save this tab as Personal to edit and correct it or add notes. All changes will be seen only by you. Learn more »
launch autoscroll
font size
0
reset
how to read this tab
guitar tuner
backing track
0:00
0:00
edit
Autoscroll
slow
fast
+/-
esc
set tempo
stop
Author
Difficulty
KoRn - Twisted Tranzistor - See You On The Other Side

Tabbed by Elvisz (elvisz@kornkids.com)
                 (elvisz84@yahoo.com)

Tuning : 7 String Tuned Low to High (A D G C F a d)

Vocal: Jonathan Houseman Davis 'Hiv'
Guitar: James Randal Shaffer 'Munky'
Bass: Reginald Arvizu 'Fieldy'
Drums: David Silveria

Intro:
Some scratching on the string with the pick, and the first note....
d|-----------------------------------|
a|-----------------------------------|
F|-----------------------------------|
C|-12~~~~----12~~~~-----12~~~~~~-----| (sometime make the pinch harmonics and bend a little the
G|-----------------------------------|  the note to get he same effects)
D|-----------------------------------|
A|-----------------------------------|

d|---------------------------|
a|---------------------------|
F|---------------------------|
C|---------------------------| (in the background really disorted)
G|----5^6^5-----5--------5^6-|  
D|---------------------------|
A|-3~-------3-3---3-3--3-----|

Verse: (with no vocals)
d|-------------------------------|
a|-------------------------------|
F|-------------------------------|
C|-------------------------------|
G|-------5^6^5-----5---------5^6-|
D|-------------------------------|
A|-3-3-3-------3-3---3-3-3-3-----|
   . . .       . .   . . . .       .palm mute

Chorus: (with no vocals)
d|-------------------------------|
a|-------------------------------|
F|-------7/8\7-----7---------7/8-|
C|-------xxxxx-----x---------xxx-|
G|-------5/6\5-----5---------5/6-|
D|-------------------------------|
A|-3-3-3-------3-3---3-3-3-3-----|
   . . .       . .   . . . .       .palm mute

d|------------------------------------------------------------------|
a|------------------------------------------------------------------|
F|-1515151515151515151515151515151514141414141414141414141414141414-|
C|-xxxxxxxxxxxxxxxxxxxxxxxxxxxxxxxxxxxxxxxxxxxxxxxxxxxxxxxxxxxxxxxx-|
G|-1313131313131313131313131313131312121212121212121212121212121212-|
D|------------------------------------------------------------------|
A|------------------------------------------------------------------|

Verse:
d|-------------------------------|
a|-------------------------------|
F|-------------------------------|
C|-------------------------------|
G|-------5^6^5-----5---------5^6-|
D|-------------------------------|
A|-3-3-3-------3-3---3-3-3-3-----|
   . . .       . .   . . . .       .palm mute

d|------------------------------------------------------------------|
a|------------------------------------------------------------------|
F|-1515151515151515151515151515151514141414141414141414141414141414-|
C|-xxxxxxxxxxxxxxxxxxxxxxxxxxxxxxxxxxxxxxxxxxxxxxxxxxxxxxxxxxxxxxxx-|
G|-1313131313131313131313131313131312121212121212121212121212121212-|
D|------------------------------------------------------------------|
A|------------------------------------------------------------------|

Pre-Chorus:
d|----------------------------------------------------|
a|----------------------------------------------------|
F|----------------------------------------------------|
C|----5~~~~~--------5~~~~---------3~~~~~-------3~~~~~-|
G|----5~~~~~--------5~~~~---------3~~~~~-------3~~~~~-|
D|----3~~~~~--------3~~~~~--------1~~~~~-------1-~~~~-|
A|--3x------------3x------------3x-----------3x-------|

d|----------------------------------------------------|
a|----------------------------------------------------|
F|----------------------------------------------------|
C|----5~~~~~--------5~~~~---------3~~~~~-------3~~~~~-|
G|----5~~~~~--------5~~~~---------3~~~~~-------3~~~~~-|
D|----3~~~~~--------3~~~~~--------1~~~~~-------1-~~~~-|
A|-33x-----------33x----------------------------------|

Fill1:
d|-------------|----------|
a|-------------|----------|
F|-------------|----------|
C|-------------|----------|
G|-5x-6x-7x-8x-|-5x-6x-7x-|
D|-5x-6x-7x-8x-|-5x-6x-7x-|
A|-3x-4x-5x-6x-|-3x-4x-5x-|

Chorus:
d|-------------------------------|
a|-------------------------------|
F|-------7/8\7-----7---------7/8-|
C|-------xxxxx-----x---------xxx-|
G|-------5/6\5-----5---------5/6-|
D|-------------------------------|
A|-3-3-3-------3-3---3-3-3-3-----|
   . . .       . .   . . . .       .palm mute

Verse:
d|-------------------------------|
a|-------------------------------|
F|-------------------------------|
C|-------------------------------|
G|-------5^6^5-----5---------5^6-|
D|-------------------------------|
A|-3-3-3-------3-3---3-3-3-3-----|
   . . .       . .   . . . .       .palm mute


Pre-Chorus:
d|----------------------------------------------------|
a|----------------------------------------------------|
F|----------------------------------------------------|
C|----5~~~~~--------5~~~~---------3~~~~~-------3~~~~~-|
G|----5~~~~~--------5~~~~---------3~~~~~-------3~~~~~-|
D|----3~~~~~--------3~~~~~--------1~~~~~-------1-~~~~-|
A|--3x------------3x------------3x-----------3x-------|

d|----------------------------------------------------|
a|----------------------------------------------------|
F|----------------------------------------------------|
C|----5~~~~~--------5~~~~---------3~~~~~-------3~~~~~-|
G|----5~~~~~--------5~~~~---------3~~~~~-------3~~~~~-|
D|----3~~~~~--------3~~~~~--------1~~~~~-------1-~~~~-|
A|-33x-----------33x----------------------------------|

Fill1:
d|-------------|----------|
a|-------------|----------|
F|-------------|----------|
C|-------------|----------|
G|-5x-6x-7x-8x-|-5x-6x-7x-|
D|-5x-6x-7x-8x-|-5x-6x-7x-|
A|-3x-4x-5x-6x-|-3x-4x-5x-|

Chorus:
d|-------------------------------|
a|-------------------------------|
F|-------7/8\7-----7---------7/8-|
C|-------xxxxx-----x---------xxx-|
G|-------5/6\5-----5---------5/6-|
D|-------------------------------|
A|-3-3-3-------3-3---3-3-3-3-----|
   . . .       . .   . . . .       .palm mute

Bridge1:
d|----------------------|
a|----------------------|
F|----------------------|
C|-12-12121212-12\11\10-|
G|-xx-xxxxxxxx-xxxxxxxx-|
D|-10-10101010-10\ 9\ 8-|
A|----------------------|

Fill2:
d|-------------|
a|-------------|
F|-------------|
C|-------------|
G|-3/////5~~~--|
D|-------------|
A|-------------|

Bridge2:
d|-----------------|
a|-----------------|
F|-----------------|
C|-8~~~~-5~~~~~----|
G|-8~~~~-5~~~~~-5x-|
D|-6~~~~-3~~~~~-5x-|
A|--------------3x-|

d|-------21-----------21--------------------------|
a|----------22-----------22---22---21---19---1921-|
F|-19/21--------19/21-----------21---21---21------|
C|------------------------------------------------|
G|------------------------------------------------|
D|------------------------------------------------|
A|------------------------------------------------|

d|-2323232323-212121-232323-212121-232323-2121-23-|
a|------------------------------------------------|
F|------------------------------------------------|
C|------------------------------------------------|
G|------------------------------------------------|
D|------------------------------------------------|
A|------------------------------------------------|

d|-------21-----------21--------------------------|
a|----------22-----------22---22---21---19---1921-|
F|-19/21--------19/21-----------21---21---21------|
C|------------------------------------------------|
G|------------------------------------------------|
D|------------------------------------------------|
A|------------------------------------------------|

d|-------------|
a|-XXXXXXXXXXX-|
F|-XXXXXXXXXXX-|
C|-XXXXXXXXXXX-|
G|-XXXXXXXXXXX-|
D|-------------|
A|-------------|

d|-------21-----------21--------------------------|
a|----------22-----------22---22---21---19---1921-|
F|-19/21--------19/21-----------21---21---21------|
C|------------------------------------------------|
G|------------------------------------------------|
D|------------------------------------------------|
A|------------------------------------------------|

d|-2323232323-212121-23232321-|
a|----------------------------|
F|----------------------------|
C|----------------------------|
G|----------------------------|
D|----------------------------|
A|----------------------------|

Chorus:
d|-------------------------------|
a|-------------------------------|
F|-------7/8\7-----7---------7/8-|
C|-------xxxxx-----x---------xxx-|
G|-------5/6\5-----5---------5/6-|
D|-------------------------------|
A|-3-3-3-------3-3---3-3-3-3-----|
   . . .       . .   . . . .       .palm mute

Outro:
d|--------------------|
a|--------------------|
F|-------7/8\7-----7x-|
C|-------xxxxx-----xx-|
G|-------5/6\5-----5x-|
D|--------------------|
A|-3-3-3-------3-3----|
   . . .       . .      .palm mute

            
            
Suggest correction
Creating personal tab
Creating personal tab
You can edit any tab online and save it as your Personal.

You can edit, replace or remove any tab part or add personal notes – all changes will be seen only by you.

Personal tabs can be accessed anytime from any device, even offline.
Learn more »
comments
print report bad tab
15 comments total. Showing first comments.
0 reply
eduardolan 100 Jan 06, 2006 04:33 AM

this is the best tab of twisted transistor here 95%in this tab is good

+1 reply
black_sabbath 416 Jan 09, 2006 04:40 AM

this is a perfect tab

0 reply
ihatethischord 10 Jan 20, 2006 03:26 PM

that tuning is crazy!

guest
You may want to rate the tab now too:
select rating
Wanna post a correction for this tab? Suggest correction