Oops, an error
Loading. Please wait.
We have an official Word Up tab made by UG professional guitarists. Check out the tab »
×
by Korn
6,437 views 24 this week
2 commentsread comments
1 2 3 4 5
x 3
add to favorites
×
Save as Personal and add changes to this tab that will be seen only by you. Learn more ›
×
You can save this tab as Personal to edit and correct it or add notes. All changes will be seen only by you. Learn more »
launch autoscroll
font size
0
reset
guitar tuner
backing track
0:00
0:00
edit
Autoscroll
slow
fast
+/-
esc
set tempo
stop
Author
Difficulty
Song:Word Up!
Artist: Korn
Album: Follow The Leader

Played on a five string bass but the 5th string is not used

Verse
G|-------------------|------------------------|
D|-------------------|------------------------|
A|-4----4----2-2---2-|---0---0-2----2-4-4-2-4-| x5
E|-------------------|------------------------|

Chorus
G|-------------------|--------------------------|
D|-------------------|--------------------------|
A|-4~---4~---2~----2~|---0~--0-2~---2-4-4-2-4-4-| x2
E|-------------------|--------------------------|

Verse
G|-------------------|------------------------|
D|-------------------|------------------------|
A|-4----4----2-2---2-|---0---0-2----2-4-4-2-4-| x4
E|-------------------|------------------------|

Chorus
G|-----------------|--------------------------|
D|-----------------|--------------------------|
A|-4~---4~---2~--2~|---0~--0-2~---2-4-4-2-4-4-| x2
E|-----------------|--------------------------|

Interlude
G|---------------------|---------------------|
D|---------------------|---------------------|
A|-------------------9-|-------------------9-| x4
E|7h8h9-9-7h8h9-9-7h8--|7h8h9-9-7h8h9-9-7h8--|

Chorus
G|-----------------|--------------------------|
D|-----------------|--------------------------|
A|-4~---4~---2~--2~|---0~--0-2~---2-4-4-2-4-4-| x3
E|-----------------|--------------------------|

Outro
G|-----------------|------------|-----------------|
D|-----------------|------------|-----------------|
A|-4~---4~---2~--2~|---0~--0-2~-|-2-4-4-2-7-7-6-6\| x1
E|-----------------|------------|-----------------|

Tabbed By Rhys Bailey

            
            
Suggest correction
Creating personal tab
Creating personal tab
You can edit any tab online and save it as your Personal.

You can edit, replace or remove any tab part or add personal notes – all changes will be seen only by you.

Personal tabs can be accessed anytime from any device, even offline.
Learn more »
Give kudos to tab author, rate the tab!
1 2 3 4 5
comments
print report bad tab
2 comments total.
0 reply
[I] FaNBoY 10 Dec 02, 2009 09:29 AM

This tab is incomplete: at the end of the first verse there are two slap notes. In the same style you have it, it should be:
s s
G|-------------|---------------------6-4-|
D|-------------|-------------------------|
A|-4--4--22--2-|-0--02---2-4-4-2-4-4-----|
E|-------------|-------------------------|

And depending on who you ask, the B string IS used. More people will tell you it is then not.

0 reply
[I] FaNBoY 10 Dec 02, 2009 09:31 AM

The two 's' letters are supposed to be above the 6-4 at the end, but my browser hates me and showed them in the wrong place when I posed that.

guest
You may want to rate the tab now too:
select rating
Wanna post a correction for this tab? Suggest correction