Oops, an error
Loading. Please wait.
We have an official Yall Want A Single tab made by UG professional guitarists. Check out the tab »
×
by Korn
5,211 views 1 this week
4 commentsread comments
1 2 3 4 5
x 4
add to favorites
×
Save as Personal and add changes to this tab that will be seen only by you. Learn more ›
×
You can save this tab as Personal to edit and correct it or add notes. All changes will be seen only by you. Learn more »
launch autoscroll
font size
0
reset
how to read this tab
guitar tuner
edit
Autoscroll
slow
fast
+/-
esc
set tempo
stop
Author
Artist: Korn
Song: Ya'll wanna single
Album:Take a look In The mirror

Tuning: eBGDAD


Intro
e---------|
B---------|
G---------|
D---------|
A---------|
D---1-0---|


Boom,Boom,Boom,Boom...                         (played really quick)
e-----------------------------------------------------------------|
B-----------------------------------------------------------------|
G-----------------------------------------------------------------|
D--------------------1--0—-3-3-3-2-0-1------1—-0—-3-3-3-3-2200-1--|x4
A--------------------1--0—-3-3-3-2-0-1------1—-0—-3-3-3-3-2200-1--|
D--------------------1--0—-3-3-3-2-0-1------1—-0—-3-3-3-3-2200-1--|


e---------------|
B---------------|
G---------------|
D---0-0-0-00-1--|x4
A-—-0-0-0-00-1--|
D-—-0-0-0-00-1--|


e------------------------|
B------------------------|
G------------------------|
D--—-0—-2-3—-8--7-8-10---|
A--—-0—-2-3—-8--7-8-10---|
D--—-0—-2-3—-8--7-8-10---|


(Verse)
e--------------------------------------------|
B--------------------------------------------|
G--------------------------------------------|
D-—-0-0-0-00-1------5—5-5—55-7--3-3-3-33-5---|x4
A---0-0-0-00—1-x4---5—5-5-55-7--3-3-3-33-5---|
D---0-0-0-00-1------5-5-5-55-7--3-3-3-33-5---|


(Chorus)
Ya'll wanna single...
e------------------------------------------------|
B------------------------------------------------|
G------------------------------------------------|
D---1--0—-3-3-3-2-0-1------1—-0—-3-3-3-3-2200-1--|x4
A---1--0—-3-3-3-2-0-1------1—-0—-3-3-3-3-2200-1--|
D---1--0—-3-3-3-2-0-1------1—-0—-3-3-3-3-2200-1--|

e-----------------------|
B-----------------------|
G-----------------------|
D-—-0—-2-3—-8--7-8-10---|
A---0—-2-3—-8--7-8-10---|
D---0—-2-3—-8--7-8-10---|

(Verse)
e--------------------------------------------|
B--------------------------------------------|
G--------------------------------------------|
D-—-0-0-0-00-1------5—5-5—55-7--3-3-3-33-5---|x4
A---0-0-0-00—1-x4---5—5-5-55-7--3-3-3-33-5---|
D---0-0-0-00-1------5-5-5-55-7--3-3-3-33-5---|


(Chorus)
Ya'll wanna single...
e------------------------------------------------|
B------------------------------------------------|
G------------------------------------------------|
D---1--0—-3-3-3-2-0-1------1—-0—-3-3-3-3-2200-1--|x4
A---1--0—-3-3-3-2-0-1------1—-0—-3-3-3-3-2200-1--|
D---1--0—-3-3-3-2-0-1------1—-0—-3-3-3-3-2200-1--|

We are the ones...
e-----------------------|
B-----------------------|
G-----------------------|
D-—-0—-2-3—-8--7-8-10---|
A-—-0—-2-3—-8--7-8-10---|
D-—-0—-2-3—-8--7-8-10---|


(Bridge)
e-------------|
B-------------|
G-------------|
D-------------|
A-------------|
D---0---1-0---|

Ya'll wanna single
e------------------------------------------|
B------------------------------------------|
G------------------------------------------|
D-----0—-3-3-3-2-0-1---—-—-3-3-3-3-2200-1--|x4
A-----0—-3-3-3-2-0-1---—-—-3-3-3-3-2200-1--|
D-----0—-3-3-3-2-0-1---—-—-3-3-3-3-2200-1--|


e------------------------------------------------|
B------------------------------------------------|
G------------------------------------------------|
D---1--0—-3-3-3-2-0-1------1—-0—-3-3-3-3-2200-1--|x4
A---1--0—-3-3-3-2-0-1------1—-0—-3-3-3-3-2200-1--|
D---1--0—-3-3-3-2-0-1------1—-0—-3-3-3-3-2200-1--|

(Outro)
e-------------|
B-------------|
G-------------|
D-------------|
A-------------|
D---0---1-0---|

            
            
Suggest correction
Creating personal tab
Creating personal tab
You can edit any tab online and save it as your Personal.

You can edit, replace or remove any tab part or add personal notes – all changes will be seen only by you.

Personal tabs can be accessed anytime from any device, even offline.
Learn more »
comments
print report bad tab
4 comments total. Showing first comments.
0 reply
KoRnHead 90 Jan 26, 2006 04:26 PM

This tab is the best i've seen. tab some more KoRn songs in 6-string

0 reply
guitardrummer22 10 Mar 13, 2006 06:56 PM

First of all, this song is using a 7-string guitar. Second of all, check the tabbing on the song. Make sure to inclue hammer-ons, pull-offs, slides, etc.

When a song is played in a different octave, the sound is much different than any other octave. If you just play the same pitch in standard, say open E string, and 7th fret on the A string, it feels and sounds like different pitches, even to the point where a McDonalds employee could tell you that there's a different sound/pitch.

Keep that in mind.

-Gdrumma22

0 reply
Dylanthegreat 10 May 18, 2006 11:46 AM

great 6 string tab ...like honestly wtf has a 7 string guitar?

guest
You may want to rate the tab now too:
select rating
Wanna post a correction for this tab? Suggest correction