Oops, an error
Loading. Please wait.

Beer Beer Tab

version 1
version 1

Whole song

Interactive

11,706 views 12 this week
no commentswrite comment
1 2 3 4 5
please rate
add to favorites
launch autoscroll
font size
0
reset
how to read this tab
guitar tuner
Autoscroll
slow
fast
+/-
esc
set tempo
stop
Help us to improve Ultimate-Guitar.com Take our survey!
×
Author
Song: Beer Beer
By: Korpiklaani
Album: Voice of Wilderness

There's not a whole lot to this song, it's pretty simple.

Tuning 1 Step Down(DGCFAD)

Riff 1
|--------------|--------------|
|--------------|------------R-|
|--------------|------------E-|
|--------------|------------S-|
|-2----5---7-5-|-2----7-5-2-T-|
|-0----3---5-3-|-0----5-3-0---|

Riff 2 (Verse)(palm muting kinda wierd on this riff listen to get it)
|---------------------------------|---------------------------------|
|---------------------------------|---------------------------------|
|---------------------------------|---------------------------------|
|---------------------------------|---------------------------------|
|-2-2---2-5-552-2-7-775-7-9---9---|-2-2---2-5-552-2-7-775-5-2---2---|
|-0-0---0-3-330-0-5-553-5-7---7---|-0-0---0-3-330-0-5-553-3-0---0---|

Riff 3 (chorus)
|---------------------------------|---------------------------------|
|---R-----------------------------|---R-----------------------------|
|---E-----------------------------|---E-----------------------------|
|---S-----------------------------|---S-----------------------------|
|-2-T-----------------------------|---T-----------------------------|
|-0------777777335555553377777777-|-5------777777335555553300000000-|
  .      ........................   .      ........................
|---------------------------------|---------------------------------|
|---R-----------------------------|---R-----------------------------|
|---E-----------------------------|---E-----------------------------|
|---S-----------------------------|---S-----------------------------|
|---T-----------------------------|---T--------------------2---2----|
|-7------777777335555553377777777-|-5------77777733555555330---0----|
  .      ........................   .      ................
Riff 4
|------------------------------------|------------------------------------|
|------------------------------------|------------------------------------|
|------------------------------------|------------------------------------|
|------------------------------------|------------------------------------|
|-2~---2-2-2-2222222~---2-2-2-222222-|-2~---2-2-2-2222222~---2-2-2-222222-|
|-0~---0-0-0-0000000~---0-0-0-000000-|-0~---0-0-0-0000000~---0-0-0-000000-|
       . . . ......     . . . ......        . . . ......     . . . ......
|------------------------------------|------------------------------------|
|------------------------------------|------------------------------------|
|------------------------------------|------------------------------------|
|------------------------------------|------------------------------------|
|-2~---2-2-2-2222222~---2-2-2-222222-|-2~---2-2-2-2222222--2--2--2--2--2--|
|-0~---0-0-0-0000000~---0-0-0-000000-|-0~---0-0-0-0000000--0--0--0--0--0--|
       . . . ......     . . . ......        . . . .......  .  .  .  .  .
                                                          (mute heavily)
from begining
Riff 1 once
Riff 2 four times
Riff 3 once
Riff 4 once
Riff 2 four times
Riff 3 once
Riff 4 (Play second half twice with pick scrape at the end)
riff 2 four times
Riff 3 once
Riff 4 two and a half times

Finished. Great drinking song, enjoy.

Legend
. = Palm Mute
~ = Let Ring
Suggest correction
Give kudos to tab author, rate the tab!
1 2 3 4 5
comments
print report bad tab
guest
You may want to rate the tab now too:
select rating
Please do not post tabs as comments. Select "correction" instead!