Oops, an error
Loading. Please wait.

Beer Beer bass

version 2
version 2

Whole song

Interactive

103 views 6 this week
no commentswrite comment
1 2 3 4 5
3 more votes to show rating
add to favorites
×
Save as Personal and add changes to this tab that will be seen only by you. Learn more ›
×
You can save this tab as Personal to edit and correct it or add notes. All changes will be seen only by you. Learn more »
launch autoscroll
font size
0
reset
guitar tuner
edit
Autoscroll
slow
fast
+/-
esc
set tempo
stop
Author
Difficulty
Another Korpiklaani tab.  I figured I might as well go for something different and trickier to pull off.

Transposed up to E Standard because original tuning is actually too low for me to figure out, and retuning my 
guitar every single time I try for the lower tunings doesn't work out too well.  If the octave issue is still
a very very big concern, I can always try new things, but...that's usually just a last-minute resort kind of 
thing.

Intro, bass doesn't start until the first 3 seconds or so.

Here goes something, as always :D

-Sharky

------------------------------------------------------------------------------------------------------------

Intro: G|--------------------|
       D|----3~-5-3----3-5---|
       A|-5~--------5~-----5-|
       E|--------------------|

Pre-Verse: G|-------------------------------------------------------------|
           D|---------3-3-0-3-5-5-3-5-7-7-5-7---------3-3-0-3-5-5-3-0-0-0-| X2
           A|-5-5-3-5-------------------------5-5-3-5---------------------|
           E|-------------------------------------------------------------|

Verse: G|-------------------------------------------------------------|
       D|---------3-3-0-3-5-5-3-5-7-7-5-7---------3-3-0-3-5-5-3-0-0-0-| X2
       A|-5-5-3-5-------------------------5-5-3-5---------------------|
       E|-------------------------------------------------------------|

Chorus: G|---------------------------------------------------|
        D|-5-5-5577553355775533-7-7-5-5-5577553355775533-0-0-| X2
        A|---------------------------------------------------|
        E|---------------------------------------------------|

Riff: G|-----------------|
      D|-----------------| X8
      A|-5-5-555-555-555-|
      E|-----------------|

Pre-Verse: G|-------------------------------------------------------------|
           D|---------3-3-0-3-5-5-3-5-7-7-5-7---------3-3-0-3-5-5-3-0-0-0-| X2
           A|-5-5-3-5-------------------------5-5-3-5---------------------|
           E|-------------------------------------------------------------|

Verse: G|-------------------------------------------------------------|
       D|---------3-3-0-3-5-5-3-5-7-7-5-7---------3-3-0-3-5-5-3-0-0-0-| X2
       A|-5-5-3-5-------------------------5-5-3-5---------------------|
       E|-------------------------------------------------------------|

Chorus: G|---------------------------------------------------|
        D|-5-5-5577553355775533-7-7-5-5-5577553355775533-0-0-| X2
        A|---------------------------------------------------|
        E|---------------------------------------------------|

Riff: G|-----------------|
      D|-----------------| X8
      A|-5-5-555-555-555-|
      E|-----------------|

Pre-Verse: G|-------------------------------------------------------------|
           D|---------3-3-0-3-5-5-3-5-7-7-5-7---------3-3-0-3-5-5-3-0-0-0-| X4
           A|-5-5-3-5-------------------------5-5-3-5---------------------|
           E|-------------------------------------------------------------|

Chorus: G|---------------------------------------------------|
        D|-5-5-5577553355775533-7-7-5-5-5577553355775533-0-0-| X2
        A|---------------------------------------------------|
        E|---------------------------------------------------|

Riff: G|-----------------|
      D|-----------------| X18
      A|-5-5-555-555-555-|
      E|-----------------|

Outro: G|----|
       D|----|
       A|-5~-|
       E|----|

-------------------------------------------------------------------------------------------------------------
Suggest correction
Creating personal tab
Creating personal tab
You can edit any tab online and save it as your Personal.

You can edit, replace or remove any tab part or add personal notes – all changes will be seen only by you.

Personal tabs can be accessed anytime from any device, even offline.
Learn more »
Give kudos to tab author, rate the tab!
1 2 3 4 5
comments
print report bad tab
guest
You may want to rate the tab now too:
select rating
Wanna post a correction for this tab? Suggest correction