Oops, an error
Loading. Please wait.

Happy Little Boozer Bass Tab

version 1
version 1

Whole song

Interactive

3,493 views 3 this week
no commentswrite comment
1 2 3 4 5
please rate
add to favorites
launch autoscroll
font size
0
reset
guitar tuner
Tab Pro tools
  • play this tab
  • loop segment
  • change instrument
  • show fretboard
  • metronome
×
Best way to learn
"Happy Little Boozer"
Autoscroll
slow
fast
+/-
esc
set tempo
stop
Contributor
Korpiklaani- Happy Little Boozer

From: Tales Along This Road

Bass Tab

Standard Tuning

x=Mute
s=16th note

Riff 1 (Instrumental)

G---------------------------------|
D---------------------------------|
A-3---3---3-----------------2-3-3-|
E---3---3---3-3-3-3-3-3-3-3-------|

Verse (W/ vocals)


G----------------------------------|
D----------------------------------|
A-x3x3x3x3x3x3----------------x3x3-|
E-------------x3x3x3x3x3x3x3x3-----|

Chorus

G---------------------------------|
D-------------------------5-------|
A-356535653565-----585-58--8653-3-|
E-------------6-6-6---6--6--------|

Flute solo

G---------------------------------|
D---------------------------------|
A-356535653565----------------3-3-|
E-------------6-6-666666666666----|

Repeat Riff 1

Repeat Verse

Repeat Chorus

Repeat Riff 1

Repeat Chorus

Repeat Riff 1

Outro
                              ssss
G----------------------------------|
D-------------------------5--------|
A-356535653565-----585-58--8653333-|
E-------------6-6-6---6--6---------|
comments
We did not receive enough feedback on this tab! Please rate:
print report bad tab
1 2 3 4 5
I want to post or [tab]
guest
You may want to rate the tab now too:
select rating
Please do not post tabs as comments. Select "correction" instead!