Oops, an error
Loading. Please wait.

Happy Little Boozer Tab

version 1
version 1

Whole song

Interactive

9,977 views 12 this week
no commentswrite comment
1 2 3 4 5
excellent!
x 3
add to favorites
launch autoscroll
font size
0
reset
how to read this tab
guitar tuner
Autoscroll
slow
fast
+/-
esc
set tempo
stop
Help us to improve Ultimate-Guitar.com Take our survey!
×
It's a really simple song, enjoy!

Intro:

When Guitar enters:

E-------------------------------------------------------|
B---------666-88888-9-8-6----------6-8-9-8-6---6--------|
G-555-888----------------8-7777-7-8---------8-7-8-7-5-5-|  X4
D-------------------------------------------------------|
A-------------------------------------------------------|
E-------------------------------------------------------|

VERSE:

E---------------------------------|
B---------------------------------|
G-5-5-5-5-5-5------------------5-5|
D-5-5-5-5-5-5-5-5--5-5-5-5-5-5-5-5|    X2 
A-3-3-3-3-3-3-5-5--5-5-5-5-5-5-3-3|
E-------------3-3--3-3-3-3-3-3----|

CHORUS:
  HAPPY LITTLE..        BOOZER
E------------------------------------------4-3-1-----|
B-1-3-4-3-1-3-4-3-1-3-4-3-------1-3-1-1-3-1-----4-1-1|
G-------------------------3-3--3-----3---------------|
D----------------------------------------------------|    X4
A----------------------------------------------------|
E----------------------------------------------------|

INTERLUDE:

E------------------------------------------4-3-1-----|
B-1-3-4-3-1-3-4-3-1-3-4-3-------1-3-1-1-3-1-----4-1-1|
G-------------------------3-3--3-----3---------------|
D----------------------------------------------------|    X4
A----------------------------------------------------|
E----------------------------------------------------|

E-------------------------------------------------------|
B---------666-88888-9-8-6----------6-8-9-8-6---6--------|
G-555-888----------------8-7777-7-8---------8-7-8-7-5-5-|  X4
D-------------------------------------------------------|
A-------------------------------------------------------|
E-------------------------------------------------------|

VERSE:

E---------------------------------|
B---------------------------------|
G-5-5-5-5-5-5------------------5-5|
D-5-5-5-5-5-5-5-5--5-5-5-5-5-5-5-5|    X2 
A-3-3-3-3-3-3-5-5--5-5-5-5-5-5-3-3|
E-------------3-3--3-3-3-3-3-3----|

CHORUS:
  HAPPY LITTLE..        BOOZER
E------------------------------------------4-3-1-----|
B-1-3-4-3-1-3-4-3-1-3-4-3-------1-3-1-1-3-1-----4-1-1|
G-------------------------3-3--3-----3---------------|
D----------------------------------------------------|    X4
A----------------------------------------------------|
E----------------------------------------------------|

INTRELUDE:

E-------------------------------------------------------|
B---------666-88888-9-8-6----------6-8-9-8-6---6--------|
G-555-888----------------8-7777-7-8---------8-7-8-7-5-5-|  X4
D-------------------------------------------------------|
A-------------------------------------------------------|
E-------------------------------------------------------|

CHORUS:
  HAPPY LITTLE..        BOOZER
E------------------------------------------4-3-1-----|
B-1-3-4-3-1-3-4-3-1-3-4-3-------1-3-1-1-3-1-----4-1-1|
G-------------------------3-3--3-----3---------------|
D----------------------------------------------------|    X4
A----------------------------------------------------|
E----------------------------------------------------|

OUTRO:

E-------------------------------------------------------|
B---------666-88888-9-8-6----------6-8-9-8-6---6--------|
G-555-888----------------8-7777-7-8---------8-7-8-7-5-5-|  X4
D-------------------------------------------------------|
A-------------------------------------------------------|
E-------------------------------------------------------|

E------------------------------------------4-3-1-----|
B-1-3-4-3-1-3-4-3-1-3-4-3-------1-3-1-1-3-1-----4-1-1|
G-------------------------3-3--3-----3---------------|
D----------------------------------------------------|    X4
A----------------------------------------------------|
E----------------------------------------------------|
Suggest correction
Give kudos to tab author, rate the tab!
1 2 3 4 5
comments
print report bad tab
guest
You may want to rate the tab now too:
select rating
Wanna post a correction for this tab? Suggest correction