Oops, an error
Loading. Please wait.

Hunting Song Tab

version 2
version 2

Whole song

Interactive

961 views 1 this week
no commentswrite comment
1 2 3 4 5
please rate
add to favorites
launch autoscroll
font size
0
reset
how to read this tab
guitar tuner
Tab Pro tools
  • play this tab
  • loop segment
  • change instrument
  • show fretboard
  • metronome
Autoscroll
slow
fast
+/-
esc
set tempo
stop
Contributor
Difficulty
intermediate
Song: Hunting Song
By: Korpiklaani
Album: Voice of Wilderness

I've transcribed the violin parts for lead guitar.

Tuning 1 Step down (DGCFAD)

Riff 1 
|-----------|--------------|-------------|-----------|
|-----------|--------------|-------------|-----------|
|-----------|--------------|-------------|-----------|
|------5--4-|-5--4---------|------5--7-5-|-----------|
|-7---------|-------7------|-7-----------|7----------|
|-----------|--------------|-------------|-----------|
|
|                  
|-----------|--------------|-------------|-----------|
|-----------|--------------|-------------|-----------|
|-----------|--------------|-------------|-----------|
|-----------|--------------|-------------|-----------|
|-2---------|------2-2-222-|-2-----------|-----------|
|-0---------|------0-0-000-|-0-----------|-----------|
                   . . ...
Riff 2
|-----------------------------------|-------------------------------|
|-----------------------------------|-------------------------------|
|-17--------------------------------|----------------------------15-|
|------17-18--17h18p17-15--12-13-12-|--------12h13p12----13-15------|
|-----------------------------------|-15--15----------15------------|
|-----------------------------------|-------------------------------|
|
|
|-----------------------------------|-------------------------------|
|-----------------------------------|-------------------------------|
|-----------------------------------|-------------------------------|
|-5---------------------------8--7--|-5-----------------------------|
|-3-------6-----------3-------6--5--|-3------6--------------3-------|
|---------4-----------1-------------|--------4--------------1-------|

Riff 2b
|-----------------------------------|-------------------------------|
|-----------------------------------|-------------------------------|
|-17--------------------------------|-------------------------------|
|------17-18--17h18p17-15--12-13-12-|-----------13-15-13-12---------|
|-----------------------------------|-15----15--------------15------|
|-----------------------------------|-------------------------------|
|
|
|-----------------------------------|-------------------------------|
|-----------------------------------|-------------------------------|
|-----------------------------------|-------------------------------|
|-5---------------------------8--7--|-5---------------------5-------|
|-3-------6-----------3-------6--5--|-3------6--------------3-------|
|---------4-----------1-------------|--------4----------------------|

Riff 3 
|----------------------------------|----------------------------------|
|----------------------------------|----------------------------------|
|----------------------------------|----------------------------------|
|-5---5-------------------8---7----|-5---5----------------------------|
|-3-333-336---6---3---3---6-665-55-|-3-333-336---6-663---3---3---3----|
|---------4-444-441-111-11---------|---------4-444-441-111-111-111-11-|
    ..  ..  ..  ..  ..  ..  ..  ..     ..  ..  ..  ..  ..  ..  ..  ..
Riff 3b
|----------------------------------|----------------------------------|
|----------------------------------|----------------------------------|
|----------------------------------|----------------------------------|
|-5---5-------------------8---7----|-5---5-----------5---5---5---5----|
|-3-333-336---6---3---3---6-665-55-|-3-333-336---6-663-333-333-333-33-|
|---------4-444-441-111-11---------|---------4-444-44-----------------|
    ..  ..  ..  ..  ..  ..  ..  ..     ..  ..  ..  ..  ..  ..  ..  ..
Riff 4
|-------------------------------|-------------------------------|
|-------------------------------|-------------------------------|
|-------------------------------|-------------------------------|
|-5--5-5-5-5-5-5-3--3-3-3\5-5-5-|-3--5-5-5-5-5-5-3--3-3-3-3-3-3-|
|-3--3-3-3-3-3-3-1--1-1-1\3-3-3-|-5--3-3-3-3-3-3-1--1-1-1-1-1-1-|
|-------------------------------|-------------------------------|
     . . . . . .   . .      . .      . . . . . .    . . . . . .
Riff 5
|-------------------------|---------------------|
|-------------------------|---------------------|
|-------------5--7--8--7--|-8---8-10-10-12------|
|-------------3--5--6--5--|-6---6-8---8-10------|
|-3--5--6--5--------------|---------------------|
|-1--3--4--3--------------|---------------------|

From start to finish
Riff 1 twice
Riff 2 once
Riff 3 twice(with lead from riff 2)
Riff 4 twice
Riff 5 once
Riff 4 once
Riff 3 twice(with lead from riff 2)
Riff 4 twice
Riff 5 once
Riff 4 once
Riff 3 twice(with lead from riff 2)
Riff 2 twice(with Lead)
Riff 3 once (with lead from riff 2)

And thats it, Enjoy.

Legend
. = Palm mute
h = Hammer on
P = Pull off
\ = Slide up to...

comments
We did not receive enough feedback on this tab! Please rate:
print report bad tab
1 2 3 4 5
I want to post or [tab]
guest
You may want to rate the tab now too:
select rating
Please do not post tabs as comments. Select "correction" instead!